Tablatura para Guitarra de Divididos: El Arriero
Conexión · Inscripción
Letras y Acordes
Pantalla Completa
Imprimir
Versión Texto
Añadir Favorito
Otras Versiones

Mostrar Diagramas
Desfile Automático
Manipular Acordes
Formato del Texto


El Arriero(TAB)

Divididos

calidad:
divi0164
AUTOR: Atahualpa Yupanqui
ALBUM: La Era De La Boludez
Enviado por Manuel
Bueno, aca estan los 2 solos mas importantes de la cancion,
mas alla de otros arreglos q hace mollo durante la cancion...
estan sacados de oido, pero estan exactamente como los hace el..
sirve saber que esta en el Bm la canion, x lo q estos solos estan
en la pentatónica de B (7° traste)

Solo 1 (min 3:11)

1|-----10-7-------7-------------------------------/7-7-------
2|-6b—7-----7---/7-10-7-------------------------------10-7---
3|-----------9-7-------9-7--9b-7b----------------------------
4|------------------------9------9-7-------------------------
5|-----------------------------------9-----------------------
6|-------------------------------------10-7-7—6-6------------

1|-------------------------------------------------------7---
2|--------------------------------------------------/7-7-----
3|-9-7--9-9-7-----------------------------7-9-7-10b----------
4|----9-------9-------------------------9--------------------
5|-------------9---7/--------7-8-9-8-7----------------------
6|--------------10-----5-7-10--------------------------------

1|-10-(10p7)--------------7—-7-------------------------------
2|----------10-7—-7--------10-10-7---------------------------
3|--------------9—-7-—7-10---------9b-9-7--------/7—-7-9p12--
4|-------------------9-------------------9---------9---------
5|-----------------------------------------------------------
6|-----------------------------------------------------------


1|-------------------------------------------------------7---
2|-------------------------------------10-----10--------7-7--
3|-7-9-7---7----------------------------------------7—-7---7-
4|------9---9-7---/9--9/127—9-------------------7-9-9------9
5|-------------7---------------/10-10-9----9-----------------
6|--------------10-------------------------------------------


**********************************************************

Solo 2 (min 5:36)

1|-13b—14------12—12-14p12—12-12/1712-12-12/14-1412-0------
2|---------------15-------15---------------------------------
3|-----------------------------------------------------------
4|-----------------------------------------------------------
5|-----------------------------------------------------------
6|-----------------------------------------------------------

1|-19--18b—0—19--18b—21—23--21b-0----------------------------
2|-----------------------------------------------------/12-12
3|-----------------------------------------------------------
4|---------------------------------12-------------12---------
5|-----------------------------------14-12------12--14-------
6|-----------------------------------------14-12-------------

1|-----------------------------------------------------------
2|--------------------------------------------/7-7-----------
3|-/14-14--/11------------------------------------9-7--7-----
4|------------12-14-14-12----------------------------9---7---
5|-----------------------14-12-9-7-9-7------8----------------
6|-------------------------------------7-10------------------

1|-----------------------------------------------------------
2|-----------------------------------------------------------
3|-----------------------------------------------------------
4|----------------------7------------------------------------
5|-9-8-7----------7-8-9---9-8-7------------------------------
6|------10-7-9-10----------------10---9-------7--------------


  ((  MANUEL DELRIO  ))

-EL AREM DEL JEQUE LÉSBICO-
Si no lo sentís, no lo sabéS
Este fichero es trabajo propio de su transcriptor y representa su interpretación personal de la canción. El material contenido en esta página es
para exclusivo uso privado, por lo que se prohibe su reproducción o retransmisión, así como su uso para fines comerciales.

© LaCuerda.net · Aviso Legal · Privacidad