Acordes de Guitarra » D »Divididos » Cielito Lindo (Tab)

Cielito Lindo
Divididos

Letras, Acordes y Tabs para Guitarra, Bajo y Ukulele

  • E|-3-3--------|-3-3----------|-3-3----------|
    B|-5-5--5-7-5-|-5-5--5-7-5---|-5-5--5-7-3-1-|
    G|------5-7-5-|------5-7-5---|------5-7-4-2-|
    D|------------|--------------|--------------|
    A|------------|--------------|--------------|
    e|------------|--------------|--------------|
    
    E|-------------------|----------------|
    B|-7-7-7-7--5-5--3---|-3h5h3--3--3--2-|
    G|-7-7-7-7--5-5--4---|-4-----4--4--1--|
    D|-------------------|----------------|
    A|-------------------|----------------|
    e|-------------------|----------------|
    
    G 
    
    E|-----7-|
    B|--8--8-|
    G|--9----|
    D|-------|
    
  • *** PARTE LENTA ***
    
    Intro
    G|--------|---------------|-------|
    D|--------|---------------|-------|
    A|--------|---------------|-------|
    E|-12\3-3-|-30-13--30-123-|-30-13-|
              | TRES   Veces  |
    
    Verso
    G|-------------------------------------------------------------------------|x2
    D|-------------------------------------------------------------------------|
    A|----------------------5-50-35--50-345--50-35--50-345--503----------------|
    E|-3--30-13--30-123--301-----------------------------------3--30-13--30-13-|
    
    Coro
    G|---------------------------------------------------------------|x4
    D|---------------------------------------------------------------|
    A|----------------3--30-13--30-12-5--50-35--50-34----------------|
    E|-3--30-13--30-12-------------------------------3--30-13--30-12-|
    
    *** PARTE RÁPIDA ***
    
    G|-----|
    D|-----|
    A|-----|
    E|-3/x-|
    
    Coro *Es Mas o Menos Así*
    G|---------------------------------------------------------------------------------------|x
  • G|------------------------------------------------------|
    D|-----------------7-77---------7-77--------------------|
    A|---10/5-5-50-35-5----5-50-35-5----5-23-3---57---5-55--|
    E|----------------------------------------3-3--3-3----3-|intro
    verso
    G|-------------------------------------------------------------------|
    D|-------------------------------------------------------------------|
    A|--4-5---5-7--2---5-50-35--50-345--50-35--50-35--52-3---5-7---------|
    E|-3---3-3---3--35------------------------------------3-3---3-50-53--|x2
    
    
    G|------------------------------------------------------------------------------------------------------------|
    D|------------------------------------------------------------------------------------------------------------|
    A|--5-55-----------5-75-50-435-50-35-52-3----5-7----5-55--------50-3345--50-35-50-345-50-35-50-3----5-7-------|
    E|-3----3-50-543--3----------------------3--3---3--3----3-50-53---------------------------------3-3----5-50-43|
    
    
    G|
  • +
    ¡Colabora con nosotros!
    Envíanos tu versión de esta canción

Letra de Cielito Lindo
Ese es el final del intro. La cancion es una melodia muy simple.
Ese lunar que tienes
cielito lindo junto a tu boca
no se lo des a nadie
cielito lindo a mi me toca
Ese lunar que tines
cielito lindo junto a tu boca
no se lo des a nadie
cielito lindo a mi me toca
Estibillo:
Ay, ay, ay, ay canta y no llores
por que cantando se alegran
cielito lindo los corazones
Ay, ay, ay, ay canta y no llores
por que cantando se alegran
cielito lindo los corazones
Despues gritan ¡1, 2, 3.... 1, 2, 3, va....!
Ay, ay, ay, ay canta y no llores
por que cantando se alegran
cieeeeee liiiii to lindo los corazones




[Cielito Lindo chords][Cielito Lindo cifra]
© LaCuerda.net · aviso legal · privacidad · es · en · pt · contacto