Acordes de Guitarra » D »Divididos » Casi Estatua (Tab)

Casi Estatua
Divididos

Letras, Acordes y Tabs para Guitarra, Bajo y Ukulele

  • E                   F#
    Con la cara hecha ajedrez
    B                A
    va la magia militar
    en la vida hecha ajedrez
    nunca el peon se come al rey
    
    Riff
    
    E|--------------------------------------------------|
    B|--------------------------------------------------|
    G|--------------------------------------------------|
    D|----------------------------7s9-9-9-7-7-5---------|
    A|-5h7-7-5-7-5---5h7-7-5-7-5------------------7-5-7-|
    e|--------------------------------------------------|
    
    Sueldo de heroe quincenal
    casi estatua de estación
    patria de un boyero muerto
    y tambero digital
    
  • E|-------------------|------------|
    B|-------------------|------------|
    G|-------------------|-2-4-2-0----|
    D|-0-2-2-0-2---(x2)--|---------2--|
    A|-----------2-------|------------|
    E|-------------------|------------|
           
    
    
    Con la cara hecha ajedrez 
                        Riff
    va la magia militar
    en la vida hecha ajedrez
                                Riff
    nunca el peon se come al rey
    sueldo de heroe quincenal
                           Riff
    casi estaua de estacion
    patria de un boyero muerto
                        Riff
    
  • Bass Line
                              "Casi Etatua"
    Intro
    |----------|
    |----------|
    |----------|
    |---/12---|
    
    Verso (x4)
    |--------------------------------|--------------------------------|
    |--------------------------------|9-9-9-7-7-7-5-5-5---5/0---------|
    |5-7-7-5-7-5-----5-7-7-5-7-5-----|------------------7-------------|
    |------------7---------------7---|--------------------------------|
    
    Estribo
    |--------------------------------|----5----------------------------|
    |--------------------6-6-7-7-8-9-|--------4------2/1414141414------|
    |---2-2-2-3-3-4-5-7-7-----------7|--3------------------------------|
    |3-3-----------------------------|-----2-----0---------------------|
    
    |--------------------------------|---4---------------------|-------|
    |--------------------6-6-7-7-8-9-|-------5---3----2--------|2/14~~~|
    |---2-2-2-3-3-4-5-7-7-----------7|-2-----------------------|-------|
    |3-3-----------------------------|-----3---1--0------------|-------|
    
    Verso (x4)
    
    Nunca el peón se come al rey...
    |
  • Corrección de 'Casi Estatua'
    
    
    Intro
    |----------|
    |----------|
    |----------|
    |--2/14\2--|
    
    Verso x4
    |--------------------------------|--------------------------------|
    |--------------------------------|9-9-9-7-7-7-5-5-5---5/0---------|
    |5-7-7-5-7-5-----5-7-7-5-7-5-----|------------------7-------------|
    |------------7---------------7---|--------------------------------|
    
    Estribillo
    |--------------------------------|--------------------------------|
    |--------------------6-6-7-7-8-9-|----7-----5-----3/1414141414----|
    |---2-2-2-3-3-4-5-7-7-----------7|--------------------------------|
    |3-3-----------------------------|5-----3-----1-------------------|
    
    |--------------------------------|------------------------|-------|
    |--------------------6-6-7-7-8-9-|----7-----7-----5-----3-|2/14~~~|
    |---2-2-2-3-3-4-5-7-7-----------7|------------------------|-------|
    |3-3-----------------------------|5-----5-----3-----1-----|-------|
    
    -Verso x4-
    
    Nunca el peón se come al rey.
  • +
    ¡Colabora con nosotros!
    Envíanos tu versión de esta canción

Letra de Casi Estatua
Con la cara hecha ajedrez
va la magia militar
en la vida hecha ajedrez
nunca el peon se come al rey
Riff
Sueldo de heroe quincenal
casi estatua de estación
patria de un boyero muerto
y tambero digital
Riff
Estribillo:
Dale soga
ponga humor a la verdad
esta tierra es cero peso
no es real
Ansias de depredador
rostro Kennedy te haces Riff
pan y circo y la coco
así te hiciste creer Riff
los duendes del interior
con lujuria de ratón
Este son los riffs 1 y 2 con WAH WAH:
nunca el peón se come al rey
dale soga
ponga humor a la verdad
esta tierra cero peso
no es real
Recitado Por Diego Arnedo:
Empachado de lavar
la fortuna en soledad
nunca el peon se come al rey
Cantando otra vez:
dale soga
ponga huevo a la verdad
esta tierra es cero peso
esta tierra es cero peso
no es real
()Aca usa mas acordes, no lo pude poner por que el sonido
se me hace medio confuso.




[Casi Estatua chords][Casi Estatua cifra]
© LaCuerda.net · aviso legal · privacidad · es · en · pt · contacto