Acordes de Guitarra » D »Divididos » Camarón Bombay (Tab)

Camarón Bombay
Divididos

Letras, Notas, Punteos, Tablaturas y Acordes de Guitarra (Tabs & Chords)

  • Letra y Acordes
    E--0--------------------
    B-------3----1-----3----
    G----0----0-----0-------  X2
    D-----------------------
    A--3----2----0-----2----
    E-----------------------
    
    
                  SOL              
       Camarón bombay
                   DO   
       Camarón bombay
                RE                SOL            
       Por lo intestino camarón 
    bombay
      
                 SOL            
       Camarón bombay
                 DO
       Camarón bombay
    
  • Tab p/Bajo
      **Esta es la versión en vivo del CD Viveza Criolla**
    
    Verso 1
    G|----------------------------|-------------------------|
    D|----------------------------|-------------------------|
    A|---------3--3-11-2h3--55555-|-----------33333--4h5----|
    E|-3-1-2-3--------------------|-3--3-11-3-------------3-|
    
    Puente
    G|-----------------|x2
    D|-----------------|
    A|-(3)-(2)-(0)-(2)-|
    E|-----------------|
    
    Verso 2
    G|------------------------|------------------------|
    D|------------------------|----------------5-------|
    A|------3--3-11-2h3--5----|----------33333--3--4h5-|
    E|-3--3-----------------3-|-33333-3----------------|
    
    Escuchá la canción para saber el ritmo
  • +
    ¡Colabora con nosotros!
    Envíanos tu versión de esta canción

Letra de Camarón Bombay
Camarón bombay
Camarón bombay
Por lo intestino camarón
bombay

Camarón bombay
Camarón bombay
Por lo intestino
camarón bombay

No te haga el rata vare
No te haga el rata man
Por que te van a hacer el hoyo, yo,yo,yo,yo
INT
Camarón bombay
Camarón bombay
por lo intestino camarón bombay
camarón bombay
camarón bombay
por lo intestino camarón bombay

Videos de Camarón Bombay
[ver más videos]

[ver todas las canciones]


© LaCuerda.net · Aviso Legal · Privacidad