Acordes de Guitarra » D »Divididos » Capo Capón (Tab)

Capo Capón
Divididos

Letras, Acordes y Tabs para Guitarra, Bajo y Ukulele

  • Intro: F# (4 vueltas)
    
    F#
    Son fraces sueltas sin pensar
    F#
    o imagen suelta sin pensar
    B            A      G       F#
    Pensando en mi no pienso en mi
    B            A      G       F#
    Pensando en vos no pienso mas.
    
    F#
    Escucho ruido sin pensar
    olor a hogar te puede ahogar.
    B           A       G        F#
    Pensando en mi, no pienso en mi.
    B           A      G          F#
    No pienses mas que pienso en vos.
    
    A        G#
    
  • Intro
    G|-------------------|x4
    D|------4-2----------|
    A|----------4---2----|
    E|-14\2----------4-3-|
    
    Verso
    G|-----------------------|---------------------|
    D|-\14-12-\14------------|-\14-12-14\4---------|
    A|--------------7-5------|---------------------|
    E|------------------\12--|---------------4-5-6-|
     |     TRES  Veces       |
    
    Coro
    G|-----------------------------------------------|---------------------|
    D|---9----9----7----5----4----4------------------|---9----9----7----5--|
    A|-----------------------------------------------|---------------------|
    E|-77-7777-7-55-5-33-3-22-2222-2222222222222222/-|-77-7777-7-55-5-33-3-|
    
    Puente
    G|--------------|
    D|---4-2--------|
    A|-------4---2--|
    E|-2----------4-|
    
    Verso
    G|-----------------------|---------------------|
    D|-\14-12-\14------------|-\14-12-14\4---------|
    A|--------------7-5------|---------------------|
    E|------------------\12--|---------------4-5-6-|
     |     TRES  Veces       |
    
    Coro
    G|---------------------
  • Capo Capon, temazo!
    
    Intro con slap y pop
    G|-----|------------------|
    D|-----|---4-2------------|
    A|-----|-------4----------|
    E|-14\-|-2--------0/2-0/2-| x3
       s     s p p p  s   s
    
    G|------------------|
    D|---4-2------------|
    A|-------4~---4~/---|
    E|-2----------------|
       s p p p    p
    
    Verso
    G|-----------------------------|-------------------------------|
    D|-/12h14-12----12h14\---------|-/12h14-12----12h14\-----------|
    A|-----------14----------------|-----------14------------------|
    E|---------------------0-2-3-3-|---------------------12-10-7-7-|
                           s s s s                       s  s  s s
    
    G|-----------------------------|-------------------------------|
    D|-/12h14-12----12h14\---------|-/12h14-12----12h14\-----------|
    A|----------14-----------------|-----------14------------------|
    E|---------------------0-2-3-3-|-------------------------------|
                           s s s s                       
           
          Coro (pueden hacerlo con sl
  • +
    ¡Colabora con nosotros!
    Envíanos tu versión de esta canción

Letra de Capo Capón
Son fraces sueltas sin pensar
o imagen suelta sin pensar
Pensando en mi no pienso en mi
Pensando en vos no pienso mas.
Escucho ruido sin pensar
olor a hogar te puede ahogar.
Pensando en mi, no pienso en mi.
No pienses mas que pienso en vos.
Voy a nadar
a sangre y leche en este mar
gambeta y caño a una sirena en castelar. si uuuuuuuu.
Nunca son fraces sin pensar
mamón poeta de piel rose
mundo de capo capon
y te olvidaste del amor.
mini solo de bateria...
mundo de capo capon
y te olvidaste del amor.
En las estrofas hay una guitarra acustica que suena atrás
y tiene un sonido "abierto", esto se logra haciendo todos
los acordes con cejilla y dejando al aire las 2 primeras
cuerdas... hagan la prueba y me comentan..
(*) El solo que hace con la guitarra junto con la voz se hace
tocando la 6ta cuerda al aire y en la 5ta haciendo




[Capo Capón chords][Capo Capón cifra]
© LaCuerda.net · aviso legal · privacidad · es · en · pt · contacto