Acordes de Guitarra » D »Divididos » Cajita Musical (Tab)

Cajita Musical
Divididos

Letras, Acordes y Tabs para Guitarra, Bajo y Ukulele

  •  D               G         C       G        D
    Con pedales, sulfatados, la bronca linda arranco
      D               G             C            G      D
    Hiervo cuerdas, para siempre, cuerpito lindo va brillar
      D          G      C             G D
    Caminando la vereda de Hurlingham a Palomar
      D            G           C                      G    D
    Tuve nervios por afiches, engrudo viejo siempre, pego bien.
    
    ** Estreibillo **
    
      F#               G
    Y un atardecer de acordes
       F#                   G      C      D
    el gran ensayo de encontrar, la eternidad.
    
    
    
      D             G             C      G      D
    Discuciones, por los gustos, valvula o transistor
    
  •       Intro: D G ( 8 veces)
    
    
    D      G
    Con pedales
    D      G
     sulfatados, 
    D              G    D        G
    la bronca linda arranco 
    D           G
    Hiervo cuerdas,
    D       G
     para siempre, 
    D                G       D          G
    cuerpito limpio va  a brillar
    
     
    Caminando la vereda 
    
    de Hurlingham a Palomar
    
  • |--5----7----5-7---/--5----7----5-4-5----|el ultimo C da el pie para el 1er
    |------------------/---------------------|compas
    |-----5----5-------/----5----5-----------|
    |------------------/---------------------|
    
    
    VAMOS CON EL ESTRIBO
    |-----------------------------|
    |------------------2-4--2-4---|esto dos veces
    |--------0-0----4-------------|
    |--2--2-----------------------|
    
    |-----------------------|-----------------------------|
    |-----------------------|--------5-5-----2------------|
    |--------2-2-3-3-4-4-5--|-------------5-----5-3-------|
    |--3--3-----------------|--3--3-------------------5-3-|
    
    REPITE EL 1ER COMPÁS 2 VESES MAS Y EL 2DO SOLAMENTE UNA VEZ
    |---------|
    |---3-----|TERMINA EN F, ENTRE LA NOTA Y LA OCTAVA
    |---------|HAY OTRO SILENCIO MUY CORTO SE
    |--1------|TOCAR AL MISMO TIEMPO COMO UN ACORDE
    
    SUENA EXCELENTE TENGAN EN CUENTA MUCHO LOS TIEMPOS CON LA BATA
    AGUANBTE DIVIDIDOS Y ARNEDO ES UN GRANDE
  • Esto se utiliza en la intro, el verso, el puente y el final                                                                               
    |--5----7----5----7----5--7--|--5----7----5----7----5--4--|
    |----------------------------|----------------------------|
    |-----5----5----5----5-------|-----5----5----5----5-------|
    |----------------------------|----------------------------|
    
    
    Y este es el estribillo                                                        
    |---------------------------|---------------------------|
    |----------------2--4--2-4--|----------------2--4--2-4--|
    |-------------4-------------|-------------4-------------|
    |--2--2--5-5----------------|--2--2--5-5----------------|
                                                              
    |---------------------------|-----------------------------|
    |---------------------------|--------5-5-----2------------|
    |--------2-2--3--3--4--4-5--|-------------5-----5-3-2-----|
    |--3--3---------------------|--3--3-----------------
  • +
    ¡Colabora con nosotros!
    Envíanos tu versión de esta canción

Letra de Cajita Musical
Con pedales, sulfatados, la bronca linda arranco
Hiervo cuerdas, para siempre, cuerpito lindo va brillar
Caminando la vereda de Hurlingham a Palomar
Tuve nervios por afiches, engrudo viejo siempre, pego bien.
** Estreibillo **
Y un atardecer de acordes
el gran ensayo de encontrar, la eternidad.
Discuciones, por los gustos, valvula o transistor
Cinto ancho que protege, estuche roto de carton
Con docencia y sadismo, cultura de lo nacional
Esta guerra de los sueños, el artista engrudo la pinto.
** Estribillo **
Y un atardecer de acordes
el gran ensayo de encontrar, la eternidad.




[Cajita Musical chords][Cajita Musical cifra]
© LaCuerda.net · aviso legal · privacidad · es · en · pt · contacto