Acordes de Guitarra » D »Divididos » El 38 (Tab)

El 38
Divididos

Letras, Acordes y Tabs para Guitarra, Bajo y Ukulele

  •     E D G        E   D G
    El 38   esta cargado
             E     D   G     D         E  D G
    le puse balas pero no se hace apretar
          E   D G D        E    D G D
    En el oeste   esta el agite
              E    D     G    D          E  D G D
    el líder manda pero vos, vos te quebras
    
    G                    D    D4 D
      Y para que tanto amor ?
    G                     D  D4 D
      si de chiquito soy así
    G                      D   D4 D
      Pensa,pensa dice la tele
    G                   D
      yo dije si, pero no... pero no tanto
    
              E  D  G  D          E     D G D
    Boxearon juntos   con sus dos hijos
    
  • [E D G]X2
    
    y despues sigue esto:
    
        E D G        E   D G
    El 38   esta cargado
             E     D   G     D         E  D G
    le puse balas pero no se hace apretar
          E   D G D        E    D G D
    En el oeste   esta el agite
              E    D     G    D          E  D G D
    el líder manda pero vos, vos te quebras
    
    G                    D    D4 D
      Y para que tanto amor ?
    G                     D  D4 D
      si de chiquito soy así
    G                      D   D4 D
      Pensa,pensa dice la tele
    G                   D
    
  • [E D G]X2
    
    
    
        E D G        E   D G
    El 38   esta cargado
             E     D   G     D         E  D G
    Le puse balas pero no se si apretar
          E   D G D        E    D G D
    En el oeste   esta el agite
              E    D     G    D          E  D G D
    El líder manda pero vos, vos te quebras
    
    G                    D    D4 D
      Y para que tanto amor?
    G                     D  D4 D
      Si de chiquito soy así
    G                      D   D4 D
      Penza, Penza dice la tele
    G                   D
    
  • El tab parece largo pero es la cancion entera. Hay partes en que parece que repito, pero 
    no es asì. Lo puse para mostrar que Arnedo hace una combinacion de dedos y notas muy buenas.
    Que son muy dificiles expresarlas en un tab, pero si escuchan bien y leen no es complicado.Suerte!!
     
    (14 segundos despues de la bateria)
    
    'Y para que...'
    
    G--------------------------------------------------------
    D--------------------------------------------------------
    A------------------------2-22-3-44h5-5-44h5-5-55-4h5-3h4-
    E-000-11-22-3-3333333333---------------------------------
    
    'Si de chiquito soy asì...'
    
    G-----------------------------------------
    D-----------------------------------------
    A--------------22-3-4-55554h5-5555-4-3-2--
    E-3-3333333333----------------------------
    
    'Pensà, pensà...'
    
    G-------------------------------------------------
    D-------------------------------------------------
    A------------------22-3-4-5-5554h5-55-555-4-3-----
    E-3-3333333(2)h333-------
  • C: crash 
    S: splash
    H: hi-hat (X: abierto, x: medio cerrado)
    R: ride (X: campana, x: plato)
    t: tacho
    T1: tom 1
    T2: tom 2
    Ch: chancha
    B: bombo 
    
    C |-------------------|
    S |-------------------|
    H |--X-X-X-X-X-X-X-X--|dale asi hasta
    R |-------------------|q empiecen los 
    T |-------------------|acordes
    T1|-------------------|
    T2|-------------------|
    Ch|-------------------|
    B |-------------------|
    
    C |-------------------|-x-------------|
    S |-------------------|---------------|
    H |-------------------|---X---X---X---|
    R |-------------------|---------------|
    T |-o-----o----o------|---o-------o---|
    T1|-------------------|---------------|
    T2|-------------------|---------------|
    Ch|-------------------|---------------|
    B |---oo----o-----o---|-o------o------|
    Sigue con este ritmo
    
    En el solo hace
    C |-------------------|
    S |-------------------|
    H |--X---X---X---X----|
    R |-------------------| 
    T |--o---o---o---o----|
    T1|-------------------|
    T2|-------------------
  • C: crash 
    S: splash
    H: hi-hat (X: abierto, x: medio cerrado)
    R: ride (X: campana, x: plato)
    t: tacho
    T1: tom 1
    T2: tom 2
    Ch: chancha
    B: bombo 
    
    Comienza la batería tocando negras con el hi-hat abierto
    C |-------------------|
    S |-------------------|
    H |--X-X-X-X-X-X-X-X--|
    R |-------------------|
    T |-------------------|
    T1|-------------------|
    T2|-------------------|
    Ch|-------------------|
    B |-------------------|
    
    Despues entras con esta combinacion
    C |-------------------|-x-------------|
    S |-------------------|---------------|
    H |--X-X-X-X-X-X-X-X--|---X---X---X---|repite este ritmo todo el tema
    R |-------------------|---------------|
    T |-o-----o----o------|---o-------o---|
    T1|-------------------|---------------|
    T2|-------------------|---------------|
    Ch|-------------------|---------------|
    B |---oo----o-----o---|-o-----o-------|
    En el estribillo hace:
    C |-------------------|
    S |-------------------|
    H |--X---X---X---X----|
    R |-------------------| 
    
  • +
    ¡Colabora con nosotros!
    Envíanos tu versión de esta canción
  • Tutorial
    HD
    Como tocar el "El 38" de Divididos en el bajo tutorial#48
    7:44
  • Tutorial
    como tocar el 38 de divididos!!!!!!!!!!
    2:16
  • Tutorial
    HD
    Como tocar El 38 de divididos en guitarra (tutarras.com.ar)
    9:52

Letra de El 38
El 38 esta cargado
le puse balas pero no se hace apretar
En el oeste esta el agite
el líder manda pero vos, vos te quebras
Y para que tanto amor ?
si de chiquito soy así
Pensa,pensa dice la tele
yo dije si, pero no... pero no tanto
Boxearon juntos con sus dos hijos
mientras la guita se le iba por el diván
Caza los brolis, dice la vieja
y ese tipo por la radio no para de hablar
En tu cabeza hay muchas cosas
y la Martita se te fue
vas a los bares y no te alcanza
todo te pesa, bancatela




[El 38 chords][El 38 cifra]
© LaCuerda.net · aviso legal · privacidad · es · en · pt · contacto