Tablatura para Bajo de Divididos: Cosas De Baboon
Conexión · Inscripción
Letras y Acordes
Pantalla Completa
Imprimir
Versión Texto
Añadir Favorito
Otras Versiones

Mostrar Diagramas
Desfile Automático
Formato del Texto


Cosas De Baboon(BAJ)

Divididos

calidad:
divi0112
AUTOR: Diego Arnedo, Ricardo Mollo
ALBUM: Gol de Mujer (1998)
Enviado por ariel
esta base se repite durante casi toda la cancion (repetila varias veces):

G|--------------------------------------------------------------------
D|--------------------------------------------------------------------
A|------------5/7\5---3--------------------------2--------------------

esto es lo que hace en el estribillo (mas o menos):
G|---------------------------------------------------------------------
D|----------------456--------456---------------------14^15^16^15-------
A|----------5-4-5------5-4-5------2222222222/14^15^16------------------
E|---------------------------------------------------------------------

G|---------------------------------------------------------------------
D|----------------------14^15^16^15----------9-------------------------
A|--2222222222/14^15^16-------------16-------7-------------------------
E|---------------------------------------------------------------------

despues vuelve a la base

esto es lo que hace en la ultima parte que dice de "sueño de nunca acabar":
G|----------------------------------------------------------------------
D|----------------------------------------------------------------------
A|-5/7\5---3--------------------------2---------------------------------
E|-----------7---5--3--0---2--4-5---------5--4---2---0--1--1---1---0----

esto es un aproximado de lo que hace Diego en la cancion, uds. 
escuchenla bien antes de tocarla, porque no es exacta.
ah...improvisen durante el solo de Mollo
Este fichero es trabajo propio de su transcriptor y representa su interpretación personal de la canción. El material contenido en esta página es
para exclusivo uso privado, por lo que se prohibe su reproducción o retransmisión, así como su uso para fines comerciales.

© LaCuerda.net · Aviso Legal · Privacidad