Acordes de Guitarra » D »Divididos » Ay que dios boludo (Tab)

Ay que dios boludo
Divididos

Letras, Acordes y Tabs para Guitarra, Bajo y Ukulele

  • (C G D A) x2
    
    ESTROFAS:
    
    C              G                 D              A
     el amor te lleno la cama de arandelas y tachuelas
    C                   G              D          A
     me opere de este bandoneon con anestesia local
    C               G                     D           A
     entonces engorde de ideas y ahora hago ayuno de bocho
    C            G             D        A
     encima me enamore y engordo mi corazon tambien
    
    
    Am C Am C
    
    PUENTE:
    
    Am           G            F#       F
      se me divorciaron las mesitas de luz
    
  •  las notas A Dsus4 y  Asus4)"(ver los *)
    
    En el puente cambiad F# por Fm# ( que es un tono muy parecido al D/F#
    que también propuso RodD ! hermano de sergio, primo del cuervo
    y amigo del huevo.
    
    Mi aporte sería cambiar en el ESTRIBILLO G por Bm.
    
    y quedaría así:
    
    
    INTRO
    
    (C G D* A*) x2
    
    ESTROFAS:
    
    C              G                 D*           A*
     el amor te llenó la cama de arandelas y tachuelas
    C                  G              D*          A*
    
  •               INTRO (C G D A) x2
    
    
         C*      G*       D*     A
    e----------3-3*-----------------------------I
    b--1-1*----------------------2-2-2----------I
    g-------------------7-7*-----2-2-2----------I
    d--2-2*-------------7-7*-----2-2-2----------I
    a--3-3*----2-2*--3--5-5*--4-----------------I
    E-------2--3-3*-----------------------------I
    
    Marquen el acorde Y LUEGO LO APAGAN *, el asterisco significa
    que deben apagar el sonido, al A lo marca algo de tres veces,
    escuchen el tema lo sacan enseguida, solo le puse estas
    variantes para que suene mejor.
    
      Hagan acordes de 5ta queda mas polenta!
    
    
    
    
  • INTRO:   (C G D A) x2
    
    C              G                 D              A
     El amor te lleno la cama de arandelas y tachuelas
    C                   G              D          A
     me opere de este bandoneon con anestesia local
    C               G                     D           A
     entonces engorde de ideas y ahora hago ayuno de bocho
    C            G             D        A
     encima me enamore y engordo mi corazon tambien
    
    
    Am C Am C
    
    
    Am           G            F#       F
      Se me divorciaron las mesitas de luz
    Am           G              F#   F
      por ser rebelde no hay negocio
    Am                G           F#            F
    
  • Ay! que dios boludo
    
    Intro y versos
        C           G          D            A
    G|--------------------------------------------------|
    D|*-------------------------------------------------|
    A|*-3---3--------------2-3-5--5--7-5----------------|
    E|--------0-2---3--3-5---------------8--5--0--5-3-5-|
    
    G|-------------------------------------------------|
    D|------------------------------------------------*|
    A|-3---3--------------2-3-5--5--------------------*|
    E|-------0-2---3--3-5-----------8--7--5--0--5-3-5--|repetir las veces necesarias
    
    
    Antes de los puentes:
    G|---------------------------|
    D|---------------------------|
    A|---------------------------|
    E|-5---7-8--/12-5---7-8--/14-|
    
    Puentes ('Se me divorciaron...') y solo
    G|-----------------------------------------------|
    D|-------------------------------4---------------|
    A|---------------------------------4-------------|
    E|-5-5-5--/17--3-3-3--/15--2-2-2------1-1--0-1-1-| x4
    
    
    Estribillos ('Vestite pebeta...')
       C
  • C: crash 
    S: splash
    H: hi-hat (X: abierto, x: medio cerrado)
    R: ride (X: campana, x: plato)
    t: tacho
    T1: tom 1
    T2: tom 2
    Ch: chancha
    B: bombo 
    intro
    C |-------------------------|
    S |-------------------------|
    H |--------------------X--X-|
    R |-------------------------|
    T |-------------------------|
    T1|-------------------------|
    T2|-------------------------|
    Ch|--------------------o--o-|
    B |-------------------------|
    
    C |--X----------------------|
    S |-------------------------|
    H |-----X--X--X--X--X--X--X-|
    R |-------------------------|
    T |--------o-----------o----|
    T1|-------------------------|
    T2|-------------------------|
    Ch|-------------------------|
    B |--o--------o--o------o---|
    
    C |-------------------------|
    S |-------------------------|
    H |--X--X--X--X--X--X--X--X-|
    R |-------------------------|
    T |--------o-----------o----|
    T1|-------------------------|
    T2|-------------------------|
    Ch|-------------------------|
    B |--o--o-----o--o--o---o---|
    
  • +
    ¡Colabora con nosotros!
    Envíanos tu versión de esta canción

Letra de Ay que dios boludo
ESTROFAS:
el amor te lleno la cama de arandelas y tachuelas
me opere de este bandoneon con anestesia local
entonces engorde de ideas y ahora hago ayuno de bocho
encima me enamore y engordo mi corazon tambien
se me divorciaron las mesitas de luz
por ser rebelde no hay negocio
ay, que dios boludo se pincho en la mitad
se hizo el canchero por milagros
ESTRIBILLO:
vestite pebeta que te llevo a pasear
esta noche paqueta nos vuelve a besar
Vestite pebeta que te llevo a pasear, esta noche
ESTROFA
tus penas son una cajita musical que se oxido
carnaval de los picaflores, maquillaje y bombachita
aquellarre de presidentes un ratito cada uno
La azafata vuelve a ser, la que trae el perfume y el pedal
ESTRIBILLO
vestite pebeta que te llevo a pasear
esta noche paqueta nos vuelve a besar
vestite pebeta que te llevo a pasear, esta noche...
Pruebenla, cualquier cosa me avisan




[Ay que dios boludo chords][Ay que dios boludo cifra]
© LaCuerda.net · aviso legal · privacidad · es · en · pt · contacto