Tablatura para Bajo de Divididos: Como un Cuento
Conexión · Inscripción
Letras y Acordes
Pantalla Completa
Imprimir
Versión Texto
Añadir Favorito
Otras Versiones

Mostrar Diagramas
Desfile Automático
Formato del Texto


Como un Cuento(BAJ)

Divididos

calidad:
divi0105
AUTOR: Jorge Araujo, Diego Arnedo, Ricardo Mollo
ALBUM: Narigon del Siglo, Yo Te Dejo Perfumado en la Esqu (2000)
Enviado por Juan
Esta es una transcripción mejorada de lo que estaba publicado antes en la pag.

Verso
G-|----------------------7-6--------------|
D-|--------------------------7------------|
A-|-7-10-7-----------7-7-------------10-7-|
E-|--------7-5-0-5-7-----------7-7-7------|

Respite hasta...
Verso antes de entrar al Estribillo
G-|----------------------7-6-------------|
D-|--------------------------7-----------|
A-|-7-10-7-----------7-7-------------10--|
E-|--------7-5-0-5-7-----------7-7-7-----|

Estribillo
G-|---------------|----------------|----------------|
D-|---------------|----------------|----------------|
A-|---------------|0-2-2-2-0-2-2-2-|0-5-5-5-0-5-5-5-|
E-|-2-2-2-0-2-2-2-|----------------|----------------|

G-|-------------------|
D-|-------------------|
A-|-4-----------------|
E-|---5-5-5-0-5-5-5-4-|

G-|---------------|----------------|----------------|
D-|---------------|----------------|----------------|
A-|---------------|0-2-2-2-0-2-2-2-|1-5-------------|
E-|-2-2-2-0-2-2-2-|----------------|----------------|


Despues del estribillo
G-|--------9-|--------9-|--------|
D-|----------|----------|--------|
A-|-10-9-7---|-10-9-7---|-10-9-7-|
E-|----------|----------|--------|

Vuelvo a Verso
Estribillo

Final 
G-|--------9-|
D-|----------|
A-|-10-9-7---|
E-|----------|
Este fichero es trabajo propio de su transcriptor y representa su interpretación personal de la canción. El material contenido en esta página es
para exclusivo uso privado, por lo que se prohibe su reproducción o retransmisión, así como su uso para fines comerciales.

© LaCuerda.net · Aviso Legal · Privacidad