Tablatura para Bajo de Divididos: Casi Estatua
Conexión · Inscripción
Letras y Acordes
Pantalla Completa
Imprimir
Versión Texto
Añadir Favorito
Otras Versiones

Mostrar Diagramas
Desfile Automático
Formato del Texto


Casi Estatua(BAJ)

Divididos

calidad:
divi0064
AUTOR: Jorge Araujo, Diego Arnedo, Ricardo Mollo
ALBUM: Narigon del Siglo, Yo Te Dejo Perfumado en la Esqu (1999)
Enviado por Pablo
Corrección de 'Casi Estatua'


Intro
|----------|
|----------|
|----------|
|--2/14\2--|

Verso x4
|--------------------------------|--------------------------------|
|--------------------------------|9-9-9-7-7-7-5-5-5---5/0---------|
|5-7-7-5-7-5-----5-7-7-5-7-5-----|------------------7-------------|
|------------7---------------7---|--------------------------------|

Estribillo
|--------------------------------|--------------------------------|
|--------------------6-6-7-7-8-9-|----7-----5-----3/1414141414----|
|---2-2-2-3-3-4-5-7-7-----------7|--------------------------------|
|3-3-----------------------------|5-----3-----1-------------------|

|--------------------------------|------------------------|-------|
|--------------------6-6-7-7-8-9-|----7-----7-----5-----3-|2/14~~~|
|---2-2-2-3-3-4-5-7-7-----------7|------------------------|-------|
|3-3-----------------------------|5-----5-----3-----1-----|-------|

-Verso x4-

Nunca el peón se come al rey...
|--------------------------------|
|17171717171717171717171717------|
|--------------------------------|
|--------------------------------|

-Estribillo-

Solo de guitarra (toca el verso x4)

Después hace:
|---------------|x10 (mas o menos)
|---------------|
|---------------|
|--2-2-2-/14\2--|

Nunca el peón se come al rey...
|--------------------------------|
|17171717171717171717171717------|
|--------------------------------|
|--------------------------------|

|--------------------------------|--------------------------------|x2
|--------------------6-6-7-7-8-9-|----7-----5-----3/1414141414----|
|---2-2-2-3-3-4-5-7-7-----------7|--------------------------------|
|3-3-----------------------------|5-----3-----1-------------------|

|--------------------------------|x3|-----------------------------|
|--------------------6-6-7-7-8-9-|  |---7--7--5/12\5--3/10\3------|
|---2-2-2-3-3-4-5-7-7-----------7|  |-----------------------------|
|3-3-----------------------------|  |-5--5--3-------1---------0---|
Este fichero es trabajo propio de su transcriptor y representa su interpretación personal de la canción. El material contenido en esta página es
para exclusivo uso privado, por lo que se prohibe su reproducción o retransmisión, así como su uso para fines comerciales.

© LaCuerda.net · Aviso Legal · Privacidad