Tablatura para Bajo de Divididos: Casi Estatua
Conexión · Inscripción
Letras y Acordes
Pantalla Completa
Imprimir
Versión Texto
Añadir Favorito
Otras Versiones

Mostrar Diagramas
Desfile Automático
Formato del Texto


Casi Estatua(BAJ)

Divididos

calidad:
divi0062
AUTOR: Jorge Araujo, Diego Arnedo, Ricardo Mollo
ALBUM: Narigon del Siglo, Yo Te Dejo Perfumado en la Esqu (1999)
Enviado por Hipolito
Bass Line
                          "Casi Etatua"
Intro
|----------|
|----------|
|----------|
|---/12---|

Verso (x4)
|--------------------------------|--------------------------------|
|--------------------------------|9-9-9-7-7-7-5-5-5---5/0---------|
|5-7-7-5-7-5-----5-7-7-5-7-5-----|------------------7-------------|
|------------7---------------7---|--------------------------------|

Estribo
|--------------------------------|----5----------------------------|
|--------------------6-6-7-7-8-9-|--------4------2/1414141414------|
|---2-2-2-3-3-4-5-7-7-----------7|--3------------------------------|
|3-3-----------------------------|-----2-----0---------------------|

|--------------------------------|---4---------------------|-------|
|--------------------6-6-7-7-8-9-|-------5---3----2--------|2/14~~~|
|---2-2-2-3-3-4-5-7-7-----------7|-2-----------------------|-------|
|3-3-----------------------------|-----3---1--0------------|-------|

Verso (x4)

Nunca el peón se come al rey...
|--------------------------------|
|17171717171717171717171717------|
|--------------------------------|
|--------------------------------|

Estribo

Solo verso (x4)

Puente:
|---------------|
|---------------|
|---------------|
|--0-0-0-/12---|

(Arnedo)
Empachado de lavar la fortuna en solodad,
nunca el peón se come al rey

|--------------------------------|
|17171717171717171717171717------|
|--------------------------------|
|--------------------------------|

Estribo
|--------------------------------|------5-------------------------|x2
|--------------------6-6-7-7-8-9-|-----------4----2/1414141414----|
|---2-2-2-3-3-4-5-7-7-----------7|----3---------------------------|
|3-3-----------------------------|--------2-----0-----------------|

|--------------------------------|x3|---4----12---10----9---|
|--------------------6-6-7-7-8-9-|  |-----------------------|
|---2-2-2-3-3-4-5-7-7-----------7|  |-2---10----8----7------|
|3-3-----------------------------|  |-----------------------|

Aguante la Aplanadora loco una masa este tema,
aca esta la correccion un par de variaciones en el
estribo pero nada +, esta todo el tema!
Aguante Divididos Y HEKUSANTUS!
Este fichero es trabajo propio de su transcriptor y representa su interpretación personal de la canción. El material contenido en esta página es
para exclusivo uso privado, por lo que se prohibe su reproducción o retransmisión, así como su uso para fines comerciales.

© LaCuerda.net · Aviso Legal · Privacidad