Acordes de Guitarra » D »Danilo Montero » Junto a tus Pies (Tab)

Junto a tus Pies
Danilo Montero

  • Letra y Acordes
    C                    G/B
    Junto a tus pies quiero posar
    Am7           Em7      F/G
    por tu amor dejarme llevar,
    C                    G/B
    junto a tus pies no se articular
    Am7           Em7     F/G
    ninguna voz tiene lugar,
    Am7         Em7       C7        F
    junto al Maestro me quiero sentar,
    Dm7        Em7 Am7 F      G
    decirle le amo    en oración.
    
    
    //CORO//:
    
    C               G/B
    Tocar tu manto Señor
    E7                     Am  C7
    lavar los pies de mi Dios
    
  • Letra y Acordes
    B-0-3h5-3h1-1-3-3h5-3-0-3-1-0-1-1h3-1-----------1h3-/
    G-------------------------------------2h3-2-4-5----- 
    --2-0-2-4-2-5-1h3-/ 
    
    E-------------3/5-3---------------------------/
    B-0-3h5-1-3-5-------1h3-3h5-1-------------1h3-/
    G-----------------------------2h3-2-2-4-5-----
    --2-0-2-2-4-5-4-5-5-/ piano 
    
    C                G
    Junto a tus pies quiero posar
     Am           Em     G
    por tu amor dejarme llevar
    C                      G
    junto a tus pies  no se articular 
    Am           Em      G  (A--3-2-0-)
    ninguna voz tiene lugar (intervalo)
    Am       Em          G       F 
    Junto al Maestro me quiero sentar
    Dm         Am   F     G 
    
  • Letra y Acordes
    Intro = |   C    |   G/B  |   E/G#  |  Am7 C7/G  |
    
              |   F    |   C/E   |   F     |      G       | 2x
    
    C            G/B
    Junto a tus pies quiero posar
    Am7       Em7       Dm/G
    por tu amor dejarme llevar,
    C                  G/B
    junto a tus pies no se articular
    Am            Em   Dm/G    |  F/G  G |
    ninguna voz tiene lugar,
    Am        Em          Gm         F
    junto al Maestro me quiero sentar,
    Dm7      Em7 Am7 F      G
    decirle le amo       en oración.
    
    
    //CORO//:
    
    
  • Letra y Acordes
    C                G/B               Am                    Em7       Dm/G
    Junto a tus pies quiero posar,     por tu amor dejarme llevar.
    C                   G/B
    Junto a tus pies no se articular,
    Am                  Em7    Dm/G        F/G       G
    ninguna voz tiene lugar.
    Am           Em     Gm        F    Dm7            Em   Am   F      G
    Junto al Maestro me quiero sentar.      Decirle le amoooo    en oración.
    
         C              G/B      E7/G#               Am7
    // Tocar tu manto Señor,    lavar los pies de mi Dios.
    C7/G     F            Em     Am  F                                Dm/G     G
           Saber que mi coro-----na    es     estar         junto   a Ti. //
                                                       Dm    Dm/G     G        C
    
    C                               G/B
    Junto a tus pies me envuelve la paz.
    Am                          Em7      Dm/G
    Cuerdas de amor capturan mi ser.
    C                   G/B
    
  • Tablatura
    Intro
    
    e--------------------------------------------------------------|
    B-----3/5--3--1--3--5--3--0------1h3--1--0--1--3--1------------|
    G-0---------------------------0--------------------------------|
    D--------------------------------------------------------------|
    A--------------------------------------------------------------|
    E--------------------------------------------------------------|
    
    e--------------------------------------------------------------|
    B--------------------------------------------------------------|
    G---3----3--2--2--4--5--5/7--2--0-----0h2--2--4--5--5/7--------|
    D--------------------------------------------------------------|
    A--------------------------------------------------------------|
    E--------------------------------------------------------------|
    
    e--------------------------5--3--------------------------------|
    B-----3/5--3--1--3--5--------------1h3--1--3/5--3--1-----------|
    G-0-----------------------------0------------------------------
  • Tablatura
    e|-------------------------------------------------------------|
    B|--------3/5--3--1--3--5--3-----0----1/3--1--0--1--3--1-------|
    G|----0--------------------------------------------------------|
    D|-------------------------------------------------------------|
    A|-------------------------------------------------------------|
    E|-------------------------------------------------------------|
    
    e|-------------------------------------------------------------|
    B|-------------0--1/3-------------------0--1/3-----------------|
    G|----3--2--2----------2--0------2---2-------------------------|
    D|-------------------------------------------------------------|
    A|-------------------------------------------------------------|
    E|-------------------------------------------------------------|
    
    e|-------------------------5--3--------------------------------|
    B|--------3/5--3--1--3--5-----------0--1/3--5--3--5------------|
    G|----0--------------------------------------------------------|
    D|-------------------------------------------------------------|
    A|-------------------------------------------------------------|
    E|-------------------------------------------------------------|
    
  • Tablatura
    BNO...ESTA CANCION LA SAKE
    DE UN VIDEO EN YOUTUBE....ES EL PUNTEO
    DEL INTERMEDIO DE LA CANCION EN VIVO...ES MUY BNA....
    
    Q LES SEA DE MUCHA BENDICION PARA SUS VIDAS...DIOS LOS BENDIGA =)
    
    
    
    e------------------------------
    B--------13----15----15-15b17--
    G---9s12----12----12-----------
    D------------------------------
    A------------------------------
    E------------------------------
    
    
    e------------------------------
    B---13-13-13-15-15bu17-15-------
    G------------------------------
    D------------------------------
    A------------------------------
    E------------------------------
    
    e---------------------------
    B-------13------------------
    G--9s12----12-14-12-14bu15-12
    D---------------------------
    A---------------------------
    E---------------------------
    
    e---------------------------------------15----------------------
    B--12-13-13s15---12-13-15bu16--13h15b16----16bd15-13--13-15-----
    G------------------------------------!!!!!!!!---------------14--
    D--------------------------------------------------
  • Tablatura
    Solo de guitarra 4:02
    
    e--------------------------------------------------------------|
    B---13-13-15-15/17--13-13-13--15-15/17-15---13-12--------------|
    G-12—12----—-------------------------------------14-12—12h14-12|
    D-----------------------------------------------------14-------|
    A--------------------------------------------------------------|
    E--------------------------------------------------------------|
    
    e-------------------------------------15-12--------------------|
    B---13-13ˆ(15)--13-15-17----15-13-15˜------15-13---------------|
    G-12-----------------------------------------------------------|
    D--------------------------------------------------------------|
    A--------------------------------------------------------------|
    E--------------------------------------------------------------|
    
    e--------------------------------------------15-17---15-17-----|
    B—13h15-------------12-13-15---17-18-19ˆ---15------15----------|
    G------14---14-12-14--------------------------------------
  • +
    ¡Colabora con nosotros!
    Envíanos tu versión de esta canción

Letra de Junto a tus Pies
Junto a tus pies quiero posar
por tu amor dejarme llevar,
junto a tus pies no se articular
ninguna voz tiene lugar,
junto al Maestro me quiero sentar,
decirle le amo en oración.
Tocar tu manto Señor
lavar los pies de mi Dios
saber que mi corona es estar junto a Ti.
Junto a tus pies me envuelva la paz
cuerdas de amor capturan mi ser,
junto a pies tu voz atravieza
mi alma y mi ser que tanto te anhela,
junto al Maestro me quiero sentar
decirle le amo en oración.
Las notas?



© LaCuerda.net · aviso legal · privacidad · contacto