Acordes de Guitarra » D »Danilo Montero » Celebrad a Cristo (Tab)

Celebrad a Cristo
Danilo Montero

Letras, Acordes y Tabs para Guitarra, Bajo y Ukulele

  • E     A      B        E      A  B
    Celebrad a Cristo, celebrad
    E     A      B        E     C D
    Celebrad a Cristo, celebrad
    E     A      B        E     A   B
    Celebrad a Cristo, celebrad
    E     A      B        E
    Celebrad a Cristo, celebrad
    
          B        C#m
    Resucito  Resucito
          B          C#m
    Y el vive para siempre
           B       C#m
    Resucito  Resucito
              B
    /Vamos a celebrad/
          C  D     E    A  B
    Resucito el Señor
  • Intro:
    
    G-----------------------------------------------------
    D-----------------------------------------------------
    A----4-7---6--9-----7---------------------------------
    E--5-----7-------7------------------------------------
    
    ESTROFA:
    
    G-----------------------------------------------------
    D-----------------------------------------------------
    A--7--7--------7-----4--7-----6--9-----7--------------
    E--------5--7-----5--------7--------7-----------------
      CELEBRAD A CRISTO, CELEBRAD
    
    G-----------------------------------------------------
    D-----------------------------------------------------
    A--7--7--------7---3--5-------------------------------
    E--------5--7-----------------------------------------
      CELEBRAD A CRISTO, CELEBRAD
    
    G-----------------------------------------------------
    D-----------------------------------------------------
    A--7--7--------7-----4--7-----6--9-----7--------------
    E--------5--7-----5--------7--------7-----------------
      CELEBRAD A C
  • +
    ¡Colabora con nosotros!
    Envíanos tu versión de esta canción

Letra de Celebrad a Cristo
Celebrad a Cristo, celebrad
Celebrad a Cristo, celebrad
Celebrad a Cristo, celebrad
Celebrad a Cristo, celebrad
Resucito Resucito
Y el vive para siempre
Resucito Resucito
/Vamos a celebrad/
Resucito el Señor




[Celebrad a Cristo chords][Celebrad a Cristo cifra]
© LaCuerda.net · aviso legal · privacidad · es · en · pt · contacto