Tablatura para Guitarra de Danilo Montero: Junto a tus Pies
Conexión · Inscripción
Letras y Acordes
Pantalla Completa
Imprimir
Versión Texto
Añadir Favorito
Otras Versiones

Mostrar Diagramas
Desfile Automático
Manipular Acordes
Formato del Texto


Danilo Montero
Junto a tus Pies(TAB)
calidad:
dmon0056
AUTOR: Saúl Morales
ALBUM: desconocido
Enviado por brayan
BNO...ESTA CANCION LA SAKE
DE UN VIDEO EN YOUTUBE....ES EL PUNTEO
DEL INTERMEDIO DE LA CANCION EN VIVO...ES MUY BNA....

Q LES SEA DE MUCHA BENDICION PARA SUS VIDAS...DIOS LOS BENDIGA =)



e------------------------------
B--------13----15----15-15b17--
G---9s12----12----12-----------
D------------------------------
A------------------------------
E------------------------------


e------------------------------
B---13-13-13-15-15bu17-15-------
G------------------------------
D------------------------------
A------------------------------
E------------------------------

e---------------------------
B-------13------------------
G--9s12----12-14-12-14bu15-12
D---------------------------
A---------------------------
E---------------------------

e---------------------------------------15----------------------
B--12-13-13s15---12-13-15bu16--13h15b16----16bd15-13--13-15-----
G------------------------------------!!!!!!!!---------------14--
D---------------------------------------------------------------
A---------------------------------------------------------------
E---------------------------------------------------------------

e-----------------------12-13-13bu15------13-15-15s17----
B--------------12-13-15----------------------------------
G--------12-14-------------------------------------------
D--12s15-------------------------------------------------
A--------------------------------------------------------
E--------------------------------------------------------

e--------17-19-20-20bu21-----------20-19-17--------
B--18-20------------------------------------20-----
G--------------------------------------------------
D--------------------------------------------------
A--------------------------------------------------
E--------------------------------------------------


el bending q esta sobre los signos de admiracion,
significa q se mantiene...no se baja la cuerda.....
bno...ojala le haya servido de mucho......DIOS LOS BENDIGA..

cualkier cosa mi correo es: brafep@hotmail.com   =)
Este fichero es trabajo propio de su transcriptor y representa su interpretación personal de la canción. El material contenido en esta página es
para exclusivo uso privado, por lo que se prohibe su reproducción o retransmisión, así como su uso para fines comerciales.
© LaCuerda.net · Aviso Legal · Privacidad