Tablatura para Guitarra de Danilo Montero: Junto a tus Pies
Conexión · Inscripción
Letras y Acordes
Pantalla Completa
Imprimir
Versión Texto
Añadir Favorito
Otras Versiones

Mostrar Diagramas
Desfile Automático
Manipular Acordes
Formato del Texto


Junto a tus Pies(TAB)

Danilo Montero

calidad:
dmon0057
AUTOR: Saúl Morales
ALBUM: desconocido
Enviado por Natalia
Solo de guitarra 4:02

e--------------------------------------------------------------|
B---13-13-15-15/17--13-13-13--15-15/17-15---13-12--------------|
G-12—12----—-------------------------------------14-12—12h14-12|
D-----------------------------------------------------14-------|
A--------------------------------------------------------------|
E--------------------------------------------------------------|

e-------------------------------------15-12--------------------|
B---13-13ˆ(15)--13-15-17----15-13-15˜------15-13---------------|
G-12-----------------------------------------------------------|
D--------------------------------------------------------------|
A--------------------------------------------------------------|
E--------------------------------------------------------------|

e--------------------------------------------15-17---15-17-----|
B—13h15-------------12-13-15---17-18-19ˆ---15------15----------|
G------14---14-12-14-------------------------------------------|
D--------------------------------------------------------------|
A--------------------------------------------------------------|
E--------------------------------------------------------------|


e--19-20-22----------------------------------------------------|
B—-------------------------------------------------------------|
G--------------------------------------------------------------|
D--------------------------------------------------------------|
A--------------------------------------------------------------|
E--------------------------------------------------------------|

˜ = vibrato
Este fichero es trabajo propio de su transcriptor y representa su interpretación personal de la canción. El material contenido en esta página es
para exclusivo uso privado, por lo que se prohibe su reproducción o retransmisión, así como su uso para fines comerciales.

© LaCuerda.net · Aviso Legal · Privacidad