Tablatura para Guitarra de Danilo Montero: Junto a tus Pies
Conexión · Inscripción
Letras y Acordes
Pantalla Completa
Imprimir
Versión Texto
Añadir Favorito
Otras Versiones

Mostrar Diagramas
Desfile Automático
Manipular Acordes
Formato del Texto


Junto a tus Pies(TAB)

Danilo Montero

calidad:
dmon0051
AUTOR: Saúl Morales
ALBUM: desconocido
Enviado por Horacio
Intro

e--------------------------------------------------------------|
B-----3/5--3--1--3--5--3--0------1h3--1--0--1--3--1------------|
G-0---------------------------0--------------------------------|
D--------------------------------------------------------------|
A--------------------------------------------------------------|
E--------------------------------------------------------------|

e--------------------------------------------------------------|
B--------------------------------------------------------------|
G---3----3--2--2--4--5--5/7--2--0-----0h2--2--4--5--5/7--------|
D--------------------------------------------------------------|
A--------------------------------------------------------------|
E--------------------------------------------------------------|

e--------------------------5--3--------------------------------|
B-----3/5--3--1--3--5--------------1h3--1--3/5--3--1-----------|
G-0-----------------------------0------------------------------|
D--------------------------------------------------------------|
A--------------------------------------------------------------|
E--------------------------------------------------------------|

e--------------------------------------------------------------|
B----------------------------------------------------------1---|
G---3---3--2--2--4--5/7--2--0------0h2-----2--4--5--4--4h5-----|
D--------------------------------------------------------------|
A--------------------------------------------------------------|
E--------------------------------------------------------------|


Transcripción por Horacio Ureña 
Costa Rica
Este fichero es trabajo propio de su transcriptor y representa su interpretación personal de la canción. El material contenido en esta página es
para exclusivo uso privado, por lo que se prohibe su reproducción o retransmisión, así como su uso para fines comerciales.

© LaCuerda.net · Aviso Legal · Privacidad