Acordes de Guitarra » C »Cielo Razzo » Desde la puerta (Tab)

Desde la puerta
Cielo Razzo

Letras, Acordes y Tabs para Guitarra, Bajo y Ukulele

  •      Am     G    G/B
    e|--------------------||
    B|-------1----0-------||
    G|----2-----0---------||
    D|---2----------------||
    A|--0------------2/7--||
    E|----------3---------||
    
    
     Em     D          C                          (RIFF1)
    Y algo tan sensible y cada tanto me pongo a pensar,
     Em    D         C                   C#*
    ya sé    mi Dios  esta detrás de esa curva,
          D          Cadd9
    pero busco siempre al llegar.
    
    Em      D        Cmaj7/C#    Cadd9
      Lo mejor de tu vida esta presente,
    Em      D        F
      ya llega la hora.
    
  •      Am     G    G/B
    e|--------------------||
    B|-------1----0-------||
    G|----2-----0---------||  (Riff 1)
    D|---2----------------||
    A|--0------------2/7--||
    E|----------3---------||
    
    
    RIFF 2:
       Em         D          C
          Y algo tan sensible y cada tanto me
    e|------0----------0---------0---0----0--|
    B|--------8--------7---------1---3----5--|
    G|------0------------7-----0---0----0----|  (Riff 2)
    D|----9----------5-----------------------|
    A|--7---------7-----------3------3----3--|
    E|---------------------------------------|
    
        pongo a pensar,
    
  • +
    ¡Colabora con nosotros!
    Envíanos tu versión de esta canción

Letra de Desde la puerta
Y algo tan sensible y cada tanto me pongo a pensar,
ya sé mi Dios esta detrás de esa curva,
pero busco siempre al llegar.
Lo mejor de tu vida esta presente,
ya llega la hora.
No hablemos hoy de nada
sentémonos en la puerta a mirar
quien va, quien fue
supongo que de nada importa
pero un poco quiero mirar.
RIFF 2:
Vamos adentro apuremos, que ya sopla
y volvámonos a desvestir
doy a tu suerte mi memoria, a tu suerte,
y sigamos descubriéndonos.
(RIFF 2) x2
Se sienta en el banquito en la entrada
Interludio:
1 2 3 4
1 2 3 4 1 2 1 2 3 4
1 2 3 4
1 2 3 4 1 2 1 2 3 4
(efectos de sonido)
La guitarra hace este riff todo el tiempo:
RIFF 3:
Vamos adentro apuremos, que ya sopla
y volvámonos a desvestir |
doy a tu suerte mi memoria, a tu suerte, |
| RIFF 3
y sigamos descubriéndonos. |
|
Lo mejor de tu vida esta presente. /
Vamos adentro apuremos, que ya sopla
y volvámonos a desvestir
doy a tu suerte mi memoria, a tu suerte,
y sigamos descubriéndonos.
Ya llega la hora
La otra viola hace esto en esa parte
(pueden hacerlo estirando cada cuerda también):
1 2 3 4 1 2 3 4
____________________________________________________________________
ACORDES (los agrego por si están mal los nombres que les puse):




[Desde la puerta chords][Desde la puerta cifra]
© LaCuerda.net · aviso legal · privacidad · es · en · pt · contacto
DINAMICO