Acordes de Guitarra » C »Cielo Razzo » Por llegar (Tab)

Por llegar
Cielo Razzo

Letras, Acordes y Tabs para Guitarra, Bajo y Ukulele

  • Intro: (MIm-DO-SOL)x3  DO-SOL -RE
    
    SOL       DO
      Rebota intenso,
    MIm               RE
    un latido habriendome el pecho
    SOL     DO     MIm
    en un segundo se multiplica
           RE
    y se hace estallido.
    
    CON LOS MISMOS ACORDES:
    
    Imagen de almas
    que me recuerdas a toda ausencia,
    baja hasta el suelo
    toda alegria q habia en mi cielo,
    
              DO
    cada vez mas
    
  • Em C G   Em C C/G C/F#    Em C G C G D
                    ^ aquí empieza este punteo:
                    | 
    e|----12v--10----------------------------------------------||
    B|-12---------13-12h13-12-----13-10------------------------||
    G|------------------------12--------12--11--12-12-12-11-11-||
    D|---------------------------------------------------------||
    A|---------------------------------------------------------||
    E|---------------------------------------------------------||
    
    e|---------------------------------------------------------|
    B|-8-8---8-8h10-8------------------------------------------|
    G|-7-7-------------9-7-7h9-7h9p7---------------------------| * arreglo 1
    D|-------------------------------9-7-7h9-7-------5-7-5---5-|
    A|-------------------------------------------5-7-------7---|
    E|---------------------------------------------------------|
          C         G
    D|-----------|-----0-|
    A|-3-3-2-0---|-2-3---| ** arreglo 2
    E|---------3-|-------|
    
  • Solo:
    
    |-----------------------------------------|
    |-----------------------------------------|
    |-----------------------------7-----------|
    |-------------------------------10-9h10p9-|
    |-----7-7h9--7--9-10-10s12-10-------------|
    |-5-7-------------------------------------|
    
    |-------------------------------------------|
    |---------------------------------------(12)|
    |-----------------------------7-7s9-----(12)|
    |-----------------------------------9-------|
    |-----7-7h9--7--9-10-10s12-10---------------|
    |-5-7---------------------------------------|
    
    |-------------------------10-8-7--------7-|
    |------------7-8-8s10--8-------8-8---8--8-|
    |-----7-7s9--------------------9---9----9-|
    |-7h9-------------------------------------|
    |-----------------------------------------|
    |-----------------------------------------|
    
    |-7-----------7------------7-----------------------------------|
    |-8-10-8-8h10-----7-8-8h10---8-----7-7-7-7-8-8-8-8-10-10-12-10-|
    |-9-------------9--------------9-9----------------------
  • |-----------------------------------------|
    |-----------------------------------------|
    |------------------------7-5-4-5-4--------|
    |-----2-4-2-4-5-7-5-----------------------|
    |---2-------------------------------------|
    |-0---------------------------------------|
    
    |-----------------------------------------|
    |-------------------------------------(12)|
    |-------------------7-9---------------(12)|
    |-----2-4-2-4-5-7-5-----9-----------------|
    |---2-------------------------------------|
    |-0---------------------------------------|
    
    |-------------------------10-8-7-------7--|
    |------------7-8-8s10--8---------8---8----|
    |-----7-7s9------------------------9------|
    |-7h9-------------------------------------|
    |-----------------------------------------|
    |-----------------------------------------|
    
    |-7-----------7------------7-----------------------------------|
    |-8-10-8-8h10-----8-8h10-----10-8-7-7-7-7-8-8-8-8-10-10-12-10--|
    |-9-------------9----------------------------------------------|
    |---------
  • +
    ¡Colabora con nosotros!
    Envíanos tu versión de esta canción

Letra de Por llegar
Rebota intenso,
un latido habriendome el pecho
en un segundo se multiplica
y se hace estallido.
CON LOS MISMOS ACORDES:
Imagen de almas
que me recuerdas a toda ausencia,
baja hasta el suelo
toda alegria q habia en mi cielo,
cada vez mas
tristeza y dolor, siempre por llegar
cada vez mas
tristeza y amor, siempre por llegar....
Estribillo
donde te escapas cuando una lagrima te viene a buscar
entre los puños ahogas palabras q ya no se iran
El silencio sera
todo un tiempo para esperar.
LOS ACORDES IGUAL QUE ANTES:
Entre tus alas
me mortificas con tus caricias
y alla me sueltas
alla en lo alto cayendo lento
cada vez mas
tristeza y amor, siempre por llegar
cada vez mas
tristeza y dolor, siempre por llegar
donde te escapas cuando una lagrima te viene a buscar
entre los puños ahogas palabras q ya no se iran
el silencio sera
todo un tiempo
para esperar....
POLLITA TE QUIERO MUCHOOOO, DEDICADO PARA LA
CHANGADA DE LA 22.... AGUANTE CIELO RAZZO.




[Por llegar chords][Por llegar cifra]
© LaCuerda.net · aviso legal · privacidad · es · en · pt · contacto