Acordes de Guitarra » C »Charly García » Demoliendo Hoteles (Tab)

Demoliendo Hoteles
Charly García

Letras, Acordes y Tabs para Guitarra, Bajo y Ukulele

  • Intro : A5 A#5 B5 C5
    
    A5 A#5 B5 C5                       D#maj7
                Yo que crecí con Videla
              C5                      D#maj7
                yo que nací sin poder
              C5
                yo que luché por la libertad
                pero nunca la pude tener.
    
                Yo que viví entre fachistas
                yo que morí en el altar
                yo que crecí con los que estaban bien
                pero a la noche estaba todo mal.
    
    
                 Bb  F  C           Dm
    Hoy paso el tiempo demoliendo hoteles
                 Bb  F               C             Dm
    mientras los plomos juntan los cables cazan rehenes.
    
  • e|--------|
    B|--------|
    G|--------|
    D|--------|
    A|0-0-1-2-|
    E|--------|
    
    INTRO: C5 (12 compases)
    
    ESTROFAS:
       C5                          Bb/C
    e|-----------------|----------------|
    B|-----------------|-----------3----|
    G|-----------------|-----------3----|
    D|-5-5-5-5-5-5-5-5-|-5-5-5-5-5-3----|
    A|-3-3-3-3-3-3-3-3-|-3-3-3-3-3------|
    E|-----------------|----------------|
    
    Yo que crecí con Videla
    Yo que nací sin poder
    
  • D--12--8-10------------------------|-------------------------/
    A------------------------------------|-----------|6x|----------/
    E------------------------------------|-------------------------/
    
    E--------------------------------------------------------------/
    B------13-11-13-p11----11-15^(16.5^16.5^16.5)15p13-15----13~~--/
    G--/12--------------12--------------------------------14-------/
    D--------------------------------------------------------------/
    A--------------------------------------------------------------/
    E--------------------------------------------------------------/
    
    E-----------------------------------------|--------------------/
    B------13----17^(19)17p15-----------------|------------13-13---/
    G--/12----12---------------15^(17-17-17)--|----11^(12)---------/
    D-----------------------------------------|---[11^(12)]--------/
    A-----------------------------------------|--------|6x|--------/
    E-----------------------------------------|--------------------/
    
    E--------------------------------------------------------------/
    B--------------------------------------------------------------/
    
  • QUE TAL A TOD@S LES QUIERO COMPARTIR
    
    EL BAJO DE UNA SUPER CANCION DEL
    MAESTRO CHARLY GARCIA, Y SE LA
    QUIERO DEDICAR A UNA PERSONA SUPER ESPECIAL
    CON LA QUE COMPARTO MUCHO EN GUSTOS MUSICALES,
    Y EN VARIAS COSAS, ESTA TABLATURA ES PARA TI,
    QUE CANTAS HERMOSO, Y ERES UNA
    PERSONA COMO DIRIA ¡FUF! HERMOSA
    TQM VERONICA CELY PARA TI DEMOLIENDO HOTELES:
    
    ESTA PARTE VA EN EL INTRO Y LOS
    VERSOS, UDS. PUEDEN HACER VARIACIONES
     EN “C” MAYOR PARA QUE NO SUENE MONOTONO SINO ASI SUENA BIEN IGUAL:
    
    G|--------------------------------|--------------------------|
    D|--------------------------------|--------------------------|
    A|--0--0--1--1--2--3--3--3--3--3--|--0--0--1--1--2--3--3--3--|
    E|--------------------------------|--------------------------|
    
    --------------------------|--------------------------|
    --------------------------|--------------------------|
    --3--3--0--0--1--1--2--3--|--3--3--3--3--0--0--1--1--|
    --------------------------|--------------------------|
    
    --------------------------|-------
  • +
    ¡Colabora con nosotros!
    Envíanos tu versión de esta canción

Letra de Demoliendo Hoteles
Yo que crecí con Videla
yo que nací sin poder
yo que luché por la libertad
pero nunca la pude tener.
Yo que viví entre fachistas
yo que morí en el altar
yo que crecí con los que estaban bien
pero a la noche estaba todo mal.
Hoy paso el tiempo demoliendo hoteles
mientras los plomos juntan los cables cazan rehenes.
Hoy paso el tiempo demoliendo hoteles
mientras los chicos allá en la esquina pegan
carteles.
Yo fui educado con odio
y odiaba a la humanidad
un día me fui con los hippies y
tuve un amor y también mucho más
Ahora no estoy más tranquilo
por qué tendría que estar,
todos crecimos sin entender
y todavía me siento un anormal.




[Demoliendo Hoteles chords][Demoliendo Hoteles cifra]
© LaCuerda.net · aviso legal · privacidad · es · en · pt · contacto