Acordes de Guitarra » C »Caramelos de Cianuro » Sanitarios (Tab)

Sanitarios
Caramelos de Cianuro

Letras, Notas, Punteos, Tablaturas y Acordes de Guitarra (Tabs & Chords)

  • Letra y Acordes
    e|---------------------------------------
    B|---------------------------------------
    G|---------------------------------------
    D|---------------------5---5---5---------
    A|-----5---5---5---3-3---3---3---3-------
    E|-3-3---3---3---3-----------------------
    
    e|---------------------------------------
    B|---------------------------------------
    G|---------------------------------------
    D|---------------------------------------
    A|-----7---7---7---7---7---7-------------
    E|-5-5---5---5---5---5---5---------------
    
    
    
    G5                C5                         D5
    Esta suerte nos coloca frente a frente aqui hoy
                                              D5
    Se que no haz venido sola yo tampoco lo estoy
    
  • Tablatura
    e|---------------------------------------
    B|---------------------------------------
    G|---------------------------------------
    D|---------------------5---5---5---------
    A|-----5---5---5---3-3---3---3---3-------
    E|-3-3---3---3---3-----------------------
    
    e|---------------------------------------
    B|---------------------------------------
    G|---------------------------------------
    D|---------------------------------------
    A|-----7---7---7---7---7---7-------------
    E|-5-5---5---5---5---5---5---------------
    
    -Intro 2- <-- este intro va con distorsion
    
         G5      C5         A5
    e|---------------------------------------
    B|---------------------------------------
    G|----------5-5-5-5----------------------
    
  • Tablatura
    e|---------------------------------------
    B|---------------------------------------
    G|--------------------------------------- 
    D|---------------------5---5---5---------
    A|-----5---5---5---3-3---3---3---3-------
    E|-3-3---3---3---3-----------------------
    
    e|---------------------------------------
    B|---------------------------------------
    G|--------------------------------------- 
    D|---------------------------------------
    A|-----7---7---7---7---7---7-------------
    E|-5-5---5---5---5---5---5---------------
      …………p.m…………p.m ……p.m………p.m……….     
    
    
    Intro II: (distorsión)
    
         G5      C5         A5
    e|---------------------------------------
    
  • Tablatura
    e|---------------------------------------
    B|---------------------------------------
    G|---------------------------------------
    D|---------------------5---5---5---------
    A|-----5---5---5---3-3---3---3---3-------
    E|-3-3---3---3---3-----------------------
    
    ---------------------------------------|
    ---------------------------------------|
    ---------------------------------------|
    --7--7--7--7--7--7--7--7---------------|
    --5--5--5--5--5--5--5--5---------------|
    ---------------------------------------|
    
              G5                             C5
    e|----------------------------------------------------
    B|----------------------------------------------------
    G|----------------------------5--5--5--5--5--5--5--5--
    D|--5--5--5--5--5--5--5--5----5--5--5--5--5--5--5--5--
    A|--5--5--5--5--5--5--5--5----3--3--3--3--3--3--3--3--
    
  • Tab p/Bajo
     e a d g
    
    (0:05)(0:40)(1:03)(1:49)(1:26)(2:57)  verso/coro 
    -----------------------------------
    -----------------------------------
    ----------33333333----------------- x2
    -33333333----------5555555555555555
    
    
    (0:17)(0:51)(1:37)(2:45)              precoro
    -----------------------------------
    -----------------------------------
    ----------33335555----------------- x2
    -33333333----------5555555555555555
    
    (2:00)
    -----------------------------------
    -----------------------------------
    ----------33333333-----------------
    -33333333----------5555555555555555
                                        x2
    -----------------------------------
    -----------------------------------
    ----------33333333-----------------
    -33333333----------55-55-55-55-1-1-
    
    (2:23)
    -----------------------------------
    -----------------------------------
    ----------33333333-----------------
    -33333333----------3333333311111111
    
    
    -----------------------------------
    -----------------------------------
    --
  • +
    ¡Colabora con nosotros!
    Envíanos tu versión de esta canción

Letra de Sanitarios
Esta suerte nos coloca frente a frente aqui hoy
Se que no haz venido sola yo tampoco lo estoy
Todo el mundo esta observando nuestro encuentro casual
Yo se bien que esta mal, yo se bien que esta mal
Que la musica tan alta no es comunicacion
Por que no vamos a un sitio donde estemos mejor
Y nos desaparecemos de este evento social
Puedes ver que me brillan los ojos
Te veo en diez minutos en el fondo de los sanitarios
Nuestro encuentro es justo y necesario,
No soporto tenerte lejos quiero hacertelo frente al espejo
Siempre te haz deshinibido ante los actos prohibidos
Si tu sientes lo que siento aprovechemos el momento
Son las cosas tontas que me hace decir el alcohol
Que no puedo sino pedirte mil veces perdon
A demas, en algun sitio alguien te debe esperar
no te quiero atrasar, no te quiero atrasar
Me paceria justo que algo pienses tambien
Que cuando estubimos juntos la pasamos muy bien
Teniendote tan cerca reconosco el olor
De la parte de atras de tu cuello
Te veo en diez minutos en el fondo de los sanitarios
Nuestro encuentro es justo y necesario,
No soporto tenerte lejos quiero hacertelo frente al espejo
Siempre te haz deshinibido ante los actos prohibidos
Si tu sientes lo que siento aprovechemos el momento
No tengo que hablar y no tienes que hablar
Por una bella noche noche magica
Cuanto te atreves a arriesgar?
Te veo en diez minutos en el fondo de los sanitarios
Nuestro encuentro es justo y necesario,
No soporto tenerte lejos quiero hacertelo frente al espejo
Siempre te haz deshinibido ante los actos prohibidos
Si tu sientes lo que siento aprovechemos el momento



© LaCuerda.net · Aviso Legal · Privacidad