Acordes de Guitarra » C »Caramelos de Cianuro » El Último Polvo (Tab)

El Último Polvo
Caramelos de Cianuro

Letras, Acordes y Tabs para Guitarra, Bajo y Ukulele

  •       F                  Dm                  Am      
          Cuando todo acabo, cuando todo se hablo, cuando por fin entiendes 
                A#      F            Dm            Am
    que el pasado paso, visto desde el final no estuvimos tan mal, los momentos 
                            A#      F            Dm                        Am
    hermosos siempre perduraran, entiende por favor que aunque sienta dolor 
                                  A#    C                  Gm            A#
    desde que te conozco soy  un hombre mejor, crei que indudablemente podia 
                F      C            Gm            A#
    botarte de repente, fíjate si estaba equivocado siendo tu quien me ha botado.
          F                        Dm                        Am
          Quiero darte una despedida, que te acuerdes toda la vida, y esta noche 
                   C                                    F                  
    he venido tan solo a que nos demos el ultimo polvo, quizás parezca pedir 
                Dm                                    Am                  
    demasiado, yo se que tu también lo has deseado, y si mañana se ha 
                      C
    terminado todo será después de nuestro ultimo polvo.
    
          F            Dm                  Am                  A#
    
  • B||--6-----6-----6-----6-----6-----6-----6-----6-----6-----6----
    G||----5-----5-----5-----5-----5-----5-----5-----5-----5-----5--
    D||-------------------------------------------------------------   
    A||-------------------------------------------------------------
    E||-------------------------------------------------------------
    
    F                                  Dm
    Cuando todo acabó, cuando todo se habló 
                      Am
    Cuando por fin entiendes que el pasado pasó
    F                                      Dm
    Visto desde el final, no estuvimos tan mal
                        Am
    Los momentos hermosos siempre perdurarán
    F                Dm                   Am
    Entiende por favor que aunque sienta dolor
    Desde que te conozco soy un hombre mejor
    
    C              Gm           Dm
     Creí que indudablemente podía botarte de repente
    
  • Esta canción esta demasiado buena............
    
    Intro:con un pedal de flanger
    e|-5-----5----6----5----6p5------------------
    B|---6-----6----6----6------6----------------
    G|-----5-----5----5----5------5--------------
    D|-------------------------------------------
    A|------------------------------------------- 
    E|------------------------------------------- 
    
    e|-5----8----6----5--------------------------
    B|---6----6----6----6------------------------
    G|-----5----5----5----5----------------------
    D|-------------------------------------------
    A|------------------------------------------- 
    E|------------------------------------------- 
    
    Verso:(powerchords)
    e|-------------------------------------------  :dejar sonar
    B|-------------------------------------------
    G|-----5:--3:--------------------------------
    D|-3:--5:--3:--------------------------------
    A|-3:--3:--1:-------------------------------- 
    E|-1:---------------------------------------- 
    
    Coro: (distorsión)
    e|---
  •       F    Dm    Am     C    Gm    Bb
        -1-   -0-   -0-   -0-   -3-   -1-
        -3-   -0-   -0-   -3-   -5-   -1-
        -3-   -0-   -2-   -2-   -5-   -3-
        -2-   -2-   -2-   -0-   -3-   -3-
        -1-   -3-   -1-   -1-   -3-   -3-
        -1-   -1-   -0-   -0-   -3-   -1-
    
    Acorde %
         F    Dm    Am     C    Gm    Bb
        -1-   -0-   -5-   -0-   -3-   -0-
        -3-   -5-   -7-   -3-   -5-   -1-
        -3-   -7-   -7-   -5-   -5-   -3-
        -0-   -7-   -0-   -5-   -0-   -3-
        -0-   -0-   -0-   -0-   -0-   -0-
        -0-   -0-   -0-   -0-   -0-   -0-
    
    
    INTRO
    
    
  • Esta es la segunda que saco de los caramelos, es muy sencilla.
    
    
    Verso (empieza con la voz de asier)
    G------------------------------------------------------------------|
    D------------------------------------------------------------------|
    A-3-3-3-3-3-3-3-3--5-5-5-5-5-5-5-5--0-0-0-0-0-0-0-0-0-0-0-0-0-0-0-0| x3
    E------------------------------------------------------------------|
    
    Pre-coro
    G------------------------------------------------------------------|
    D------------------------------------------------------------------|
    A-3-3-3-3-3-3-3-3-----------------5-5-5-5-5-5-5-5--3-3-3-3-3-3-3-3-|
    E-----------------3-3-3-3-3-3-3-3----------------------------------|
    
    G----------------------------------|
    D----------------------------------|
    A-3-3-3-3-3-3-3-3------------------|
    E-----------------3-3-3-3-3-3-3-3/6|
    
    Coro (estoy poniendo como si fueran 8 veces 
          cada nota pero en realidad son 14 o 15)
    G--------------------------------------------------------------------|
    
  • +
    ¡Colabora con nosotros!
    Envíanos tu versión de esta canción

Letra de El Último Polvo
Cuando todo acabo, cuando todo se hablo, cuando por fin entiendes
que el pasado paso, visto desde el final no estuvimos tan mal, los momentos
hermosos siempre perduraran, entiende por favor que aunque sienta dolor
desde que te conozco soy un hombre mejor, crei que indudablemente podia
botarte de repente, fíjate si estaba equivocado siendo tu quien me ha botado.
Quiero darte una despedida, que te acuerdes toda la vida, y esta noche
he venido tan solo a que nos demos el ultimo polvo, quizás parezca pedir
demasiado, yo se que tu también lo has deseado, y si mañana se ha
terminado todo será después de nuestro ultimo polvo.
Tanta desilusión, tanta desolación, cuando es de cada uno lo que fue
los dos, y ahora habrá que esperar lo que pueda pasar, no debe haber
comienzo si no habido final, cuando salga el sol nos diremos adiós, todo será
distinto para nosotros dos, creí que indudablemente podía botarte de repente,
fíjate si estaba equivocado siendo tu quien me ha botado.

Quiero darte una despedida, que te acuerdes toda la vida, y esta noche
he venido tan solo a que nos demos el ultimo polvo, quizás parezca pedir
demasiado, yo se que tu también lo has deseado, y si mañana se ha
terminado todo será después de nuestro ultimo polvo. Y yo descubriré a la
antes que nunca visitaba del lado oscuro de tu almohada, y yo pase mi lengua
por el borde de tu cara y probé tus lagrimas saladas, yo descubriré a la que
nunca antes visitaba del lado oscuro de tu almohada y yo pase mi lengua por el
borde de tu cara y probé tus lagrimas saladas




[El Último Polvo chords][El Último Polvo cifra]
© LaCuerda.net · aviso legal · privacidad · es · en · pt · contacto