Acordes de Guitarra » C »Caramelos de Cianuro » Retrovisor (Tab)

Retrovisor
Caramelos de Cianuro

Letras, Acordes y Tabs para Guitarra, Bajo y Ukulele

  • Empiezan los punteos de bajo y luego viene esto:
    
    Intro
    e|--------------------------------------------|
    B|--------------------------------------------|
    G|-------------------5-5-5-5/3-3-3------------|
    D|-8-8-8-8/7-7-7-----5-5-5-5/3-3-3------------|
    A|-8-8-8-8/7-7-7-----3-3-3-3/1-1-1------------|
    D|-8-8-8-8/7-7-7------------------------------|
    
    Versos: igual que el intro
    
    e|--------------------------------------------|
    B|--------------------------------------------|
    G|-------------------5-5-5-5/3-3-3------------|
    D|-8-8-8-8/7-7-7-----5-5-5-5/3-3-3------------|
    A|-8-8-8-8/7-7-7-----3-3-3-3/1-1-1------------|
    D|-8-8-8-8/7-7-7------------------------------|
    
    
    Coro:
    
    e|--------------------------------------------|
    B|--------------------------------------------|
    G|--------3-3-3-3-3--2-2-2-2------------------|
    D|-3-3-3--3-3-3-3-3--2-2-2-2------------------|
    A|-3-3-3--1-1-1-1-1--0-0-0-0------------------|
    D|-3-3-3--------------------------------------|
    
    e|---------------------------------------
  • e|-------5-------------------5------------8-----------------5---------------|
    B|---6-------------6-----5------------6-----------6-----5-------------------|
    G|-5---5-------5/7--- 5----5-------7---7-------7---7-5----5-----------------|
    D|--------------------------------------------------------------------------|
    A|--------------------------------------------------------------------------|
    E|--------------------------------------------------------------------------|
    
    
    Rift de Estrofa (El Rift del intro y las estrofas es igual)
    
    e|-------5-------------------5------------8-----------------5---------------|
    B|---6-------------6-----5------------6-----------6-----5-------------------|
    G|-5---5-------5/7--- 5----5-------7---7-------7---7-5----5-----------------|
    D|--------------------------------------------------------------------------|
    A|--------------------------------------------------------------------------|
    E|--------------------------------------------------------------------------|
    
    
    
    Creo que no es bueno llevar el pasado
    
  • Bueno, esta es mi primera tablatura, y voy a seguir poniendo de los caramelos.
    Para poder que suene como es hay que afinarlo en re (D)
    
    Intro
    G--------------------------------|--------------------------------|
    D--------------------------------|--------------------------------|
    E-------------------1-1-1-1-0-0-0|-------------------3-3-3-3-1-1-1| x2
    D-3-3-3-3-3-3-3-3-3--------------|-0-0-0-0-0-0-0-0-0--------------|
    
    Verso
    G--------------------------------|--------------------------------|
    D--------------------------------|--------------------------------|
    E-------------------1-1-1-1-0-0-0|-------------------3-3-3-3-1-1-1| x2
    D-3-3-3-3-3-3-3-3-3--------------|-0-0-0-0-0-0-0-0-0--------------|
     
    Coro... Son las mismas notas lo unico que cambia es el ritmo.
    
    Verso (igual que el primero)
     
    Coro
    G--------------------------------|--------------------------------|
    D--------------------------------|--------------------------------|
    E-------------------1-1-1-1-0-0-0|--------
  • +
    ¡Colabora con nosotros!
    Envíanos tu versión de esta canción






[Retrovisor chords][Retrovisor cifra]
© LaCuerda.net · aviso legal · privacidad · es · en · pt · contacto