Acordes de Guitarra » C »Caramelos de Cianuro » La Terraza (Tab)

La Terraza
Caramelos de Cianuro

Letras, Acordes y Tabs para Guitarra, Bajo y Ukulele

  • Intro: Em, Bm, Am, Em, G, D, C,
    
                         Em          Bm
    Recuerdo que en las noches te solia silbar
    Am           Em
    desde la calle a la ventana
    G             D
    tu te escapabas bordeando
    C
    el oscuro jardin
    
    PRE CORO:
                       Em              Bm
    Quien sabe cuantas lunas contemplamos pasar
    Am        Em
    echados en la terraza
    G          D
    desde mi casa el cielo se sigue
    C
    Viendo casi igual
    
  • Intro: Em, D, Am, Em, G, D, C, C
    
                         Em          D
    Recuerdo que en las noches te solia silbar
    Am           Em
    desde la calle a la ventana
    G             D
    tu te escapabas bordeando
    C
    el oscuro jardin
    
    PRE CORO:
                       Em              D
    Quien sabe cuantas lunas contemplamos pasar
    Am        Em
    echados en la terraza
    G          D
    desde mi casa el cielo se sigue
    C
    Viendo casi igual
    
  • -----------------------------------------------------------------
    
    Intro: Em  Bm  Am  Em  G  D  C
           Em  Bm  Am  Em  G  D  C
    
            Con Wah-Wah y Distorsion
    e|-------------------------------------------
    B|-------------------------------------------
    G|-------------------------------------------
    D|-------------------------------------------
    A|-5-7-7--5-7-7--5-7--5-7-7--5-7-7-----------
    E|-------------------------------------------
    
            Con Wah-Wah y Distorsion
    e|-------------------------------------------
    B|-------------------------------------------
    G|-------------------------------------------
    D|-------------------------------------------
    A|-5-7--5-7-7--5-7-7--5-7--5-7-7--5-7-7--5-7-
    E|-------------------------------------------
    
  •   Em Bm Am Em  G  D  C  C
    e|-7--7--5--7--3--5--3--3--------------------
    B|-8--7--5--8--3--7--5--5--------------------
    G|-9--7--5--9--4--7--5--5--------------------
    D|-9--9--7--9--5--7--5--5--------------------
    A|-7--9--7--7--5--5--3--3--------------------
    E|-7--7--5--7--3--5--3--3--------------------
    
    e|-------------------------------------------
    B|-------------------------------------------
    G|-------------------------------------------
    D|-------------------------------------------
    A|-5-7-7--5-7-7--5-7--5-7-7--5-7-7-----------
    E|-------------------------------------------
    
    
    e|-------------------------------------------
    B|-------------------------------------------
    G|-------------------------------------------
    D|-5---5vvvvv----5vvvvv----------------------
    
  • Bueno otra mas de los caramelos, esta es buena.....
    
    NOTA: CUANDO PONGO > DESPUES DE UNA NOTA ES QUE HAY 
    QUE REPETIRLA 8 VECES
    
    
    Intro y Verso
    G-----------------------------------|
    D-----------------------------------|
    A-----2>-0>--------5>-33-333-333-333|X4
    E-0>---------0>-3>------------------|
    
    Coro (se repite dos veces todo el coro)
    G--------------------|  |-------|  
    D--------------------|  |-------|  
    A-3-3-3-3-5-5-5-5----|X3|-3>----|
    E-----------------0>-|  |----5>-|  
    
    Interludio
    G-----------------------------------|
    D-----------------------------------|
    A-----2>-0>--------5>-33-333-333-333|X4
    E-0>---------0>-3>------------------|
    
    Coro (se repite dos veces todo el coro)
    G--------------------|  |-------|  
    D--------------------|  |-------|  
    A-3-3-3-3-5-5-5-5----|X3|-3>----|
    E-----------------0>-|  |----5>-|
    
    Fin
    G-----------------|
    D-----------------|
    A----------5>-3>>-|
    E-3>-2>-0>--------|
    
    Eso es todo cualquier duda escribanme a mi email..
  • +
    ¡Colabora con nosotros!
    Envíanos tu versión de esta canción

Letra de La Terraza
Recuerdo que en las noches te solia silbar
desde la calle a la ventana
tu te escapabas bordeando
el oscuro jardin
PRE CORO:
Quien sabe cuantas lunas contemplamos pasar
echados en la terraza
desde mi casa el cielo se sigue
Viendo casi igual
yo era tu mala influencia
tu fuistes mi princesa
siempre son fragiles las horas mas prefectas
quizas me invada la nostalgia
por un encuentro imposible
De las memorias solo atesoramos lo sublime
Y ahora todo el mundo me pregunta por ti
y yo no quiero explicarles
yo tengo animos de
parecer amable
PRE CORO:
A pasado el tiempo esto es lo que siento
de lo que te digo dios es mi testigo
que con cada noche con cada mañana
con todos los minutos de todas las semanas
No dejo de pensar en lo que dijiste
no dejo de aferrarme a lo que me diste
no cambia lo que siento la distancia es como el viento
no es vivir en el pasado es quererte a mi lado
Es tan solo tratar de ser sincero con migo mismo
es tan solo tratar de llenar este vacio
que me carcome en las entrañas
que no me deja vivir si no estas junto a miiiiiii!
En el intro dice al final C, C debido a q hay una pequeña pausa
y continua el ritmo… tambien se utiliza en el resto de la
cancion y el tono q se utiliza en la ultima parte Cadd9,
es la segunda version en el glosario de acordes ok...




[La Terraza chords][La Terraza cifra]
© LaCuerda.net · aviso legal · privacidad · es · en · pt · contacto
DINAMICO