Acordes de Guitarra » C »Canciones Populares » Mi buenaventura (Tab)

Mi buenaventura
Canciones Populares

  • Tablatura
    Por Cristhian
    
    Guitarra
    
    
    
    
    E||--------------------|--------0---------|--------------------|
    B||--------0--3--------|-----1------------|--------0--3--------|
    G||-----1--------5--4--|--2---------------|-----1--------5--4--|
    D||--2-----------------|-------------2----|--2-----------------|
    A||--------------------|--0-----3---------|--------------------|
    E||--0--------4--------|------------------|--0--------4--------|
    
    
    
    ------------------|--------------------|--------0---------|--0--0----2--4----|
    ------------------|--------0--3--1--0--|-----1------------|--3-------3-------|
    --2---------------|-----1--------------|--2---------------|--4-------4-------|
    -----2------------|--2-----------------|-------------2----|----------2-------|
    --0-----3----0----|--------------------|--0-----3---------|------------------|
    ------------------|--0--------4--------|------------------|--0---------------|
    
    
    
    --5--------4--------|--3--------2--------||---------------------|
    --5-------
  • +
    ¡Colabora con nosotros!
    Envíanos tu versión de esta canción





© LaCuerda.net · aviso legal · privacidad · contacto