Acordes de Guitarra » C »Canciones Populares » Las Gaviotas (Tab)

Las Gaviotas
Canciones Populares

Letras, Notas, Punteos, Tablaturas y Acordes de Guitarra (Tabs & Chords)

  • Tablatura
    C                                   G7
    e-3-3-1-0-0-3-8-7-8-8-7-5-------------
    B-------------------------8-5-5-8-6-5-8
    G-------------------------------------
    D-------------------------------------
    A-------------------------------------
    E-------------------------------------
    
                                     C
    e---------3-5-3-7-5-3---7-7--5-3----
    B-3-3-5-6-------------6----------6-5
    G-----------------------------------
    D-----------------------------------
    A-----------------------------------
    E-----------------------------------
    
    final 1 vez
    C                                   G7
    e-3-3-1-0-0-3-8-7-8-8-7-5-------------
    B-------------------------8-5-5-8-6-5-8
    
  • +
    ¡Colabora con nosotros!
    Envíanos tu versión de esta canción

Letra de Las Gaviotas
final 1 vez
todo se lo dedico a Estefania que la amo



© LaCuerda.net · Aviso Legal · Privacidad