Acordes de Guitarra » C »Canciones Populares » La Bamba (Tab)

La Bamba
Canciones Populares

Letras, Acordes y Tabs para Guitarra, Bajo y Ukulele

  • ---------------------------------------------------------------------------
    ---------------------------------------------------------------------------
    -----------0--2-0----2-2-0------0--2-0----2-2-0---------------2-2-0--------
    ----------2--3------0------2---2--3------0-----2--2-0--2-0---0------2------
    ----0-2-3----------2---------3----------2--------3----3-----2--------------
    ---3--------------3--------------------3-------------------3---------------
    
     C  F     G
    BAMBA, BAMBA
    
     C  F     G
    BAMBA, BAMBA
    
     C  F     G   C  F  G
    BAMBA, BAMBA
    
                    C  F  G
    PARA BAILAR LA BAMBA 
    
                    C  
    
  •                C      F        G
    Para bailar la bamba
                    C      F       G              C      F    G
    para bailar la bamba se necesita una poca de gracia
                  C       F      G                C      F    G
    una poca de gracia pa mi pa ti hay arriba y arriba
                   C        F       G                   C    F   G
    hay arriba y arriba por ti seré por ti seré por ti seré.
    
    
                   C     F      G
    Yo no soy marinero
                   C     F      G          C        F       G
    yo no soy marinero soy capitán soy capitán soy capitán
    
    C  F  G
    Bamba bamba
    C  F  G
    bamba bamba
    C  F  G
    
  • esta es la bamba espero ke les guste
    
    1-----------------------
    2-----------------------
    3----------0----2-0-----
    4--------2---3----------
    5--0-2-3----------------
    6-3---------------------
    
         "2 Veces"
    1--------------------------
    2--------------------------
    3--------------------------
    4------0-3-3-2-0-----------
    5----2-----------3---------
    6--3-----------------------
    
    1--------------------------
    2--------------------------
    3---0----2-0---------------
    4-2---3--------------------
    5--------------------------
    6-------------------------
    
    
    1--------------------------
    2--0------------------------
    3----2-0-------------------
    4--------3-2-0-------------
    5--------------3-----------
    6--------------------------
    
    
      C    F    G
    Para Bailar La Bamba...
  • +
    ¡Colabora con nosotros!
    Envíanos tu versión de esta canción

Letra de La Bamba
BAMBA, BAMBA
BAMBA, BAMBA
BAMBA, BAMBA
PARA BAILAR LA BAMBA
PARA BAILAR LA BAMBA
SE NECESITA
UNA POCA DE GRACIA
UNA POCA DE GRACIA
Y OTRA COSITA
AY ARRIBA Y ARRIBA
AY ARRIBA Y ARRIBA
Y ARRIBA IRE
YO NO SOY MARINERO
YO NO SOY MARINERO
SOY CAPITAN

SOY CAPITAN
PARA SER MI CUNADO
PARA SER MI CUNADO

SE NECESITA

QUE ME DES A TU HERMANA
QUE ME DES A TU HERMANA
LA MAS BONITA
AY ARRIBA Y ARRIBA
AY ARRIBA Y ARRIBA
Y ARRIBA IRE

YO NO SOY MARINERO
YO NO SOY MARINERO
POR TI SERE
POR TI SERE
PARA SUBIR AL CIELO
PARA SUBIR AL CIELO
SE NECESITA UNA ESCALERA GRANDE

UNA ESCALERA GRANDE
Y OTRA CHIQUITA

AY ARRIBA Y ARRIBA
AY ARRIBA Y ARRIBA
Y ARRIBA IRE
ARRIBA IRE
ARRIBA IRE
ARRIBA IRE
BAMBA, BAMBA
BAMBA, BAMBA
BAMBA, BAMBA
AY CUPIDO TE PIDO
AY CUPIDO TE PIDO DE COMPASION
QUE SE ACABE LA BAMBA
QUE SE ACABE LA BAMBA
Y VENGA OTRO SON
AY ARRIBA Y ARRIBA
AY ARRIBA Y ARRIBA
Y ARRIBA IRE
ARRIBA IRE
ARRIBA IRE
BAMBA, BAMBA
BAMBA, BAMBA
BAMBA, BAMBA




[La Bamba chords][La Bamba cifra]
© LaCuerda.net · aviso legal · privacidad · es · en · pt · contacto