Acordes de Guitarra » C »Canciones Populares » A las barricadas (Tab)

A las barricadas
Canciones Populares

Letras, Notas, Punteos, Tablaturas y Acordes de Guitarra (Tabs & Chords)

  • Letra y Acordes
    Em
    Negras tormentas agitan los aires,
    B       Am           B     Em
    nubes oscuras nos impiden ver,
    Em
    aunque nos espere el dolor y la muerte,
    B           Am           B     Em
    contra el enemigo nos llama el deber.
    
          G                    D
    El bien más preciado es la libertad.
                      Am              B
    luchemos por ella con fe y con valor.
    
    
    Em
    Alza la bandera revolucionaria,
    B           Am           B             Em
    que del triunfo sin cesar nos lleva en pos
    
    
  • Tablatura
    A las barricadas 
    
                                                                     
    Vamos a introducir aqui por la red alguna cancioncilla revolucionaria
    
    
    
                                                                                  
    E||------------------------|-----------------------|-------------------------|
    B||--1----1----------------|-----------------------|-------1---1-1-----------|
    G||-----------3-1----1---0-|------------------1----|--0-------------3--1--0--|
    D||------------------------|--3----3---1-3---------|-------------------------|
    A||------------------------|-----------------------|-------------------------|
    E||------------------------|-----------------------|-------------------------|
    
    
                                                                             
    ----------------------|--------------1----------|-----------------------|
    -------------1--------|--1--1--1---1------1-----|-----------------------|
    -------1---3----------|-----------------------
  • +
    ¡Colabora con nosotros!
    Envíanos tu versión de esta canción

Letra de A las barricadas
Negras tormentas agitan los aires,
nubes oscuras nos impiden ver,
aunque nos espere el dolor y la muerte,
contra el enemigo nos llama el deber.
El bien más preciado es la libertad.
luchemos por ella con fe y con valor.
Alza la bandera revolucionaria,
que del triunfo sin cesar nos lleva en pos
Alza la bandera revolucionaria,
que llevará al pueblo a la emancipación.
¡En pie pueblo obrero, a la batalla!
¡Hay que derrocar a la reacción!
¡A las barricadas! ¡A las barricadas
por el triunfo de la Confederación!

[ver todas las canciones]


© LaCuerda.net · Aviso Legal · Privacidad