Tablatura para Guitarra de Caifanes: Viento
Conexión · Inscripción
Letras y Acordes
Pantalla Completa
Imprimir
Versión Texto
Añadir Favorito
Otras Versiones

Mostrar Diagramas
Desfile Automático
Manipular Acordes
Formato del Texto


Viento(TAB)

Caifanes

calidad:
caif0538
AUTOR: Saul Hernández
ALBUM: Caifanes (1990)
Enviado por Juan
Esta es la versión sin púa con púa las solas van dobles

|----------------------------------------------------------------|
|----------------------------------------------------------------|
|----------------------------------------------------------------|
|----4-------4------4------4-------4------4----------------------|
|-5-5-5---7-7-7--5-5-5--7-5-5---2-2-2--2-2-2------5------7-------|
|----------------------------------------------3-3-3--5-5-5------|


|----------------------------------------------------------------|
|----------------------------------------------------------------|
|----------------------------------------------------------------|
|----4-------4------4------4-------4------4----------------------|
|-5-5-5---7-7-7--5-5-5--7-5-5---2-2-2--2-2-2------5------7-------|
|----------------------------------------------3-3-3--5-5-5------|


|----------------------------------------------------------------|
|----------------------------------------------------------------|
|----------------------------------------------------------------|
|----4-------4------4------4-------4------4----------------------|
|-5-5-5---7-7-7--5-5-5--7-5-5---2-2-2--2-2-2------5------7-------|
|----------------------------------------------3-3-3--5-5-5------|


|----------------------------------------------------------------|
|----------------------------------------------------------------|
|----------------------------------------------------------------|
|----4-------4------4------4-------4------4----------------------|
|-5-5-5---7-7-7--5-5-5--7-5-5---2-2-2--2-2-2------5------7-------|
|----------------------------------------------3-3-3--5-5-5------|
Este fichero es trabajo propio de su transcriptor y representa su interpretación personal de la canción. El material contenido en esta página es
para exclusivo uso privado, por lo que se prohibe su reproducción o retransmisión, así como su uso para fines comerciales.

© LaCuerda.net · Aviso Legal · Privacidad