Acordes de Guitarra » C »Caifanes » Miércoles de Ceniza (Tab)

Miércoles de Ceniza
Caifanes

Letras, Acordes y Tabs para Guitarra, Bajo y Ukulele

  • E  C#m
    
    VERSO 1:
    E                            C#m
    Te acuerdas cuando jugabas con el
    E                                C#m
    siempre desde los arboles se miraban
    E                C#m
    Solo con el podias hablar
    E                 C#m
    Solo con el podias llorar
    
    C           C#m
    Ahora es un hueso
    enterrado
    
    PUENTE:
    C  A   G#m
    Olvidado
    C  A   G#m
    
  • e|------------------------------
    b|---------9---9------10-9-9----
    g|-4--6-8--------8-6------------
    
    e|------------------------------
    b|-------------9--9------10-9-9-
    g|-8-6-4--6-8-------8-6---------
    
    
     E                            C#m
    Te acuerdas cuando jugabas con el
    E                                C#m
    siempre desde los arboles se miraban
    E                C#m
    Solo con el podias hablar
    E                 C#m
    Solo con el podias llorar
    
    DO-5           C#m
    Ahora es un hueso
    
  • Caifenes - Miercoles de Ceniza
    Parece dificil pero no lo es...  solo me gustar aclarar los Tabs
    No olviden votar por la trancripcion..OK
    Intro guitarra:
    
    1|--------------------------------|-------|----------------------------|
    2|-----------5---6-5----6-5-3--   |-------|-----------5---6-5----6-5-3-|
    3|--4---5-7---------7-----------  |--5-4--|---4---5-7--------7---------|
    4|--------------------------------|-------|----------------------------|
    5|--------------------------------|-------|----------------------------|
    6|--------------------------------|-------|----------------------------|
    
    Te acuerdas cuando jugabas con el
    Siempre desde los arboles se miraban
    Solo con el podias hablar
    Solo con el podias llorar
    
    D - rasgueo hacia arriba
    
    Ahora es un hueso        Enterrado
    1|------------------------------|
    2|--8^----8^^-----8^---8^---6^^-|
    3|--10^--10^^----10^--10^---8^^-|
    4|------------------------------|
    5|------------------------------|
    6|-------------------------
  •    Intro [C#m]
    
    e:I--------4--I---------5-4-4--I-----------I-----4-I--------5-4-4v~--I
    B:I-0--2h4----I-4p2-0----------I-4--2p0--0-I-2h4---I-4p2-0-----------I
    G:I-----------I----------------I-----------I-------I-----------------I
    D:I-----------I----------------I-----------I-------I-----------------I
    A:I-----------I----------------I-----------I-------I-----------------I
    E:I-----------I----------------I-----------I-------I-----------------I
    
      
      ¿Te acuerdas cuando jugabas con el?
      Siempre desde los arboles se miraban;
      solo con el podias hablar,
      solo con el podias llorar...............
    
    
            Ahora_es_un_hueso______________________enterrado 
        C#m                                                   C#m
    e:I------I----------------------------------------------I------I
    B:I-9v~--I------------------------9-9--------9-9--------I-9v~--I
    
  •   Intro
      E           C#m         E           C#m
    G|-----9-----------6-----------9-----------6------|
    D|------------------------------------------------|
    A|77777-77777-44444-44444-77777-77777-44444-44444-|
    E|------------------------------------------------|
    
      Te acuerdas...             Ahora es un hueso...
        E           C#m          C-5 C#m         C-5
    G||------------------------||-------------------
    D||.-----------------6666-.||-------------------
    A||.7777------7-4444-----4.||-3--4444--4444---3-
    E||----7-0000-------6------||--------6-----6----
                  X  4
    
      Olvidado...         olvidado...
      C#m  A    G#m       C#m  A    G#m
    G ----------------------------------------|
    D ----------------------------------------|
    A 4444----------------4444----------------|
    E -----5555-4444-4444------5555-4444-xxxx-|
    
      Intro...
      E           C#m         E             C#m
    G|------------------------------9--------------------|
    D|------------------------------------------
  • +
    ¡Colabora con nosotros!
    Envíanos tu versión de esta canción

Letra de Miércoles de Ceniza
VERSO 1:
Te acuerdas cuando jugabas con el
siempre desde los arboles se miraban
Ahora es un hueso
enterrado
Olvidado
Olvidado
VERSO 2:
Te acuerdas cuando hablaban de la muerte
Decian que era un futuro interminable
Ahora que pasa?, donde te encuentro?
Te acuerdas cuando se convertian en dioses
Decian que nada los iba a separar
Ahora es un hueso
Enterrado
Olvidado
Olvidado
En un miercoles de ceniza
En un miercoles de ceniza
En un miercoles de ceniza
En un miércoles
Oh Oh La ra ra
Oh Oh La ra ra
ALMITA TE AMO... RECUÉRDALO...




[Miércoles de Ceniza chords][Miércoles de Ceniza cifra]
© LaCuerda.net · aviso legal · privacidad · es · en · pt · contacto