Acordes de Guitarra » C »Caifanes » Sombras en tiempos perdidos (Tab)

Sombras en tiempos perdidos
Caifanes

Letras, Acordes y Tabs para Guitarra, Bajo y Ukulele

  • C#m E G#m A
    
    VERSO 1:
    C#m
    Voy, a través del cristal
                          A
    Microscópico de tu piel celular.
    
    C#m
    Ciego incompleto terreno cruzado
                  A
    De esquina a esquina te pierdo.
    
    De esquina a esquina te pierdo.
    
    PUENTE:
    Bm  D     G                 F#m
    Junta tu rostro mojado con el mío.
    Bm  D      G                F#m
    Nunca me quites ese embrujo tuyo.
    
  • Bm
    Voy, a traves del cristal
                        G
    Microscopico de tu piel celular.
    Bm
    Ciego incompleto terreno cruzado.
                       G
    De esquina a esquina te pierdo.
                            G
    De esquina a esquina te pierdo.
    
    Am C6     F                 Em
    Junta tu rostro mojado con el mio.
    Am C6      F                Em
    Nunca me quites es embrujo tuyo.
    Am   C6    F              Em   
    Hay amor hazme creer que todo es verdad.
    Am   C6    F          Em
    Hay amor hazme brincar sobre el mar.
    
    
  • este es el tab de la cansion por ahora solo e sacado la parte
    que toca alejandro marcovich. Echenle ganas
    
    intro
    e-0-0-0---0-------------------------------0-0-0---0---------------|
    b-2-2-2-4-2-4-4-2-0--2-2-2-0-2-2-0-0--0-0-2-2-2-4-2-4-4-2-0-------|
    g-------4---4-4-1----1-1-1---1-1----------------4---4-4-1---------|
    d-----------------4--------4-----4-4--2-4-----------------4-------|
    a-----------------------------------------------------------------|
    e-----------------------------------------------------------------|
    
    e---------------------0-0-0---0---------------|
    b-2-2-2-0--2-0-0--0-0-2-2-2-4-2-4-4-2-0-------|
    g-1-1-1----1----------------4---4-4-1---------|
    d-------4----4-4--2-4-----------------4-------|
    a---------------------------------------------|
    e---------------------------------------------|
    
    e---------------------0-0-0---0---------------|
    b-2-2-2-0--2-0-0--0-0-2-2-2-4-2-4-4-2-0-------|
    g-1-1-1----1----------------4---4-4-1---------|
    d-------4----4-4--2-4---
  • e|-2-----0---0---|         e*-2-----0---8-------* 
    B|---3-----3-----|         B*---3-----3---------*
    G|-----4---------|         G*-----4-------------*
    D|---------------|         D*-------------------*
    A|---------------          A*-------------------*
    
    GUITARRA 2: ALEJANDRO (SE TOCA JUNTO CON EL R1 Y EL R2 DE SAUL )
    e|--------------------------------|
    B|-2-2-2-2-2-2-0------------------|
    G|-3-3-3-2-3-2-0------------------|
    D|---------------4-4-4-2-0-2-4----|
    A|---------------4-4-4-2-0-2-4----|
    E|--------------------------------|
    
    INTRO BAJO: SABO (ESTO SE TOCA CON EL R2 DE SAUL) 
    G|-------------------------------------------------------------------------------------------------------|
    D|-------------------------------------------------------------------------------------------------------|
    A|-2--2--4-5-4---22---4-5-4--------4-5-4-------4-5-4-----4-5-4--------4-5-4--------4-5-4-----4-5-4---2---|
    E|-------------5------------5--3-3-------5--33-------2-2-------5--2-2-------5--0-0-------0-0-------5-----|
    
    
  •  G1                              G2
    e|-4--4-2-2-|--|-4--4-2-9-2-|--||---|--|-------|---|--|--------|
    B|--55---5--|X6|--55--------|X6||---|--|-------|---|--|--------|
    G|----------|--|------------|--||-9-|X5|-8-6-4-|-6-|X5|-4-2-4--|
    D|----------|--|------------|--||11-|--|-9-7-4-|-6-|--|-4-2-4--|
    A|----------|--|------------|--||---|--|-------|---|--|--------|
    E|----------|--|------------|--||---|--|-------|---|--|--------|
    
    El tec toca estas Notas durante el intro y el verso
    e|-------------------|
    B|-------------9-12--|               G#-B
    G|------8-9-11-------|       D#-E-F#
    D|-9-11--------------|  B-C#
    A|-------------------|
    E|-------------------|
    
    Vers- (Se toca lo primero del Intro de la G1)
    Voy, a traves del cristal
    Microscopico de tu piel celular.
    Ciego incompleto terreno cruzado.
    
  • NOTA:
    
    Espero y te ayude en algo esta tab.
    
    Si necesitas una tab en especial, escríbeme o visita...
    
    http://www.myspace.com/alejandrolauyola
    
                                                 W
    G||-------|-------|-------|-------|-------|-------------------|
    D||-------|-------|-------|-------|-------|-------------------|
    A||-------|-------|-------|-------|-------|--4----------------|
    E||-------|-------|-------|-------|-------|-------------------|
    
    
      Q    S S S S H           Q    H        S S S S    W
    ------------------------|------------------------|-------------------|
    ------------------------|------------------------|-------------------|
    --L----6-7-6---0--------|--L----L--------6-7-6---|-------------------|
    -------------4----------|----------------------4-|--3----------------|
    
    
      Q    S S S S H           Q    Q    Q    S S S S
    ------------------------|-------------------------|
    ------------------------|-------------------------|
    -------6-7-6------------|-----------------6-7-6---|
    --L---
  • +
    ¡Colabora con nosotros!
    Envíanos tu versión de esta canción

Letra de Sombras en tiempos perdidos
VERSO 1:
Voy, a través del cristal
Microscópico de tu piel celular.
Ciego incompleto terreno cruzado
De esquina a esquina te pierdo.
De esquina a esquina te pierdo.
Junta tu rostro mojado con el mío.
Nunca me quites ese embrujo tuyo.
Hay amor hazme creer que todo es verdad.
Hay amor hazme brincar sobre el mar.
Somos sombras
En tiempos
perdidos.
Ah ah ah ah
VERSO 2:
Quiero romper el cristal
Que empaña mi cuerpo confuso, difuso.
Muerdo historias humanas
Que nunca han sido comprendidas, olvidadas.
Junta tu monstruo dolido con el mío.
Nunca me lleves a templos perdidos.
Hay amor hazme creer que todo es verdad.
Hay amor hazme brincar sobre el mar.
Somos sombras
En tiempos
perdidos.
Somos sombras
En tiempos
perdidos.
FINAL:
Ahh Ahh Ahh Ahh Ahh Ahh
Ahh Ahh Ahh Ahh Ahh Ahh
Ahh Ahh Ahh Ahh Ahh Ahh Ahh
Ahh Ahh Ahh Ahh Ahh Ahh
Ahh Ahh Ahh Ahh Ahh Ahh
Ahh Ahh Ahh Ahh Ahh Ahh Ahh
Ahh Ahh Ahh Ahh Ahh Ahh
Ahh Ahh Ahh Ahh Ahh Ahh
Ahh Ahh Ahh Ahh Ahh Ahh Ahh
ALMÍTA, TE AMO!!! RECUÉRDALO...




[Sombras en tiempos perdidos chords][Sombras en tiempos perdidos cifra]
© LaCuerda.net · aviso legal · privacidad · es · en · pt · contacto
DINAMICO