Acordes de Guitarra » C »Caifanes » Nubes (Tab)

Nubes
Caifanes

Letras, Acordes y Tabs para Guitarra, Bajo y Ukulele

  • Bm          F#m    
     Parecemos nubes,
    Bm                    F#m  
     que se las lleva el viento
    Bm               F#m
     cuando hay huracanes,
    Bm                  F#m
     cuando hay mal de amores.
    
     
     (Bm - F#m)
     Parecemos presos,
     y como presos pensamos.
     Escapar uno del otro,
     y cometer la fuga.
     
    
      D               A      
     Vamos a dar una vuelta al cielo,
    Bm              F#m
    
  •   Intro [Bm F#m] X4
    
    e:I-10p7-(10p7)--10p7------------------------I
    B:I-----------------------10p7-(10p7)--10p7--I
    G:I------------------------------------------I
    D:I------------------------------------------I
    A:I------------------------------------------I
    E:I------------------------------------------I
    
    e:I-10p7-(10p7)--10s12----9p5---9p5--I
    B:I----------------------------------I
    G:I----------------------------------I
    D:I----------------------------------I
    A:I----------------------------------I
    E:I----------------------------------I
    
    e:I-10p7-(10p7)--10p7--------------------------I
    B:I-----------------------10p7-(10p7)--7-10p7--I
    G:I--------------------------------------------I
    D:I--------------------------------------------I
    
  • ahí les van los riffs de esta extraordinaria rola de la mejor banda
    de rock en español ... está muy sencilla ... disfrútenla!
    
    Intro (con efecto):
    
    e -10h7~~~-10/12-9h5~~~-5h9h5-|
    
    1º solo (sax):
    
    e ---2-5-3-2---------5-4-5-4~-|
    B --3-------2-5-3---3---------|
    G -4-------------4-4----------|
    
    2º solo:
    
    B --10-9-7--5/7-7-5-7-5--|--10-9-7--7/12-12-9-10-7-|
    G -7---------------7---7-|-7-----------------------|
    
    B ---15--14--12/10-12-14-12-10h12-15-14-12-10h12-12-12-12-10~-|
    G -11--11--11-----9--9--9-------------------------------------|
    
    3º solo:
    
    B ------15-15--15--15-----17-17--17--17-----19-19--19--19-22~-|
    G -15/16-----16--16--16/18-----18--18--18/19-----19--19-------|
    
    Final (trompetas):
    
    e ----------------14-14-13-12-11-|
    B -15-15-14-12--12---------------|
    G ------------14-----------------|
  • Intro:
    
    G:---------------      G:----------------------        
    D:-----4---------      D:----------------------
    A:-2-5---4------- 8X   A:-5-55------2-22------- 2X  
    E:---------5-2---      E:------5-55------2-22--   
    
    Despues de que tocen el D,A,Bm,y el F#m dos veses tocan
    esta parte que va asi...
    
    G:-----------------------
    D:-----4-----------------
    A:-2-5---5-4------5-4-2--
    E:------------2-5--------
    
    G:-----------------------
    D:-----4-----------------
    A:-2-5---5-4------0-4-2-- 2X
    E:------------0-2--------
    
    G:------------------------
    D:----4-------------------
    A:-2-5--5-4----0-2-5-4-2--
    E:-----------2------------
    
    Se repite esta porcion 3 veces en la cancion.
    
    Tocas esta parte cuando comiensan a tocar la D,A,Bm,y F#m.
    
    G:--------------------|----------------------
    D:-----4--------------|----------------------
    A:-2-5---5-4----------|-5-55------2-22-------
    E:------------222222--|------5-55------2-22--
                                      2X
    
    Cuando entra el
  • El bajo de esta rola esta facil solo hay que agarrar
    bien los tiempos ya que el bajo cambia la duracion de 
    notas derrepente...
    
     ( 1a Estrofa )            |( 2a Est.solo de guit.y solo de sax )
      Bm           F#m         |Bm           F#m
    G|------------|------------|------------|------------|
    D|-----------4|------------|-------4----|-------4----|
    A|-2----5-----|-4----------|12s2-5---5-4|-----4---2--|
    E|------------|------5----2|------------|2--5--------|
     ( Coro 1 )                | 
      D            A            Bm           F#m   
    G|------------|------------|------------|------------|
    D|------------|------------|------------|------------|
    A|5---55v----5|------------|2---22v----2|------------|
    E|------------|5---55v----5|------------|2---22v----2|
     ( Solo de bajo )
      D            A            Bm           F#m
    G|---7--------|------------|------------|------------|
    D|-----7------|---7--------|---9--------|---4--------|
    A|-------5v---|-----7------|-----9------|-----4--
  • Verso1
    G----------------------------------
    D----------------------------------
    A---------9--------3---------------
    E--7--10--------------5---2--------
    Parecemos nubes...
    
    
    coro
    G-------------------------------------------------------
    D------------------------------------------9-9-9-9-11-9-
    A--5-5-5-5-7-5------------------------------------------
    E---------------5-5-5-5-7-5--7-7-7-7-9-7----------------
    Vamos a dar una vuelta...
    
    
    Verso2
    G----------------------------------------
    D----------------------------------------
    A---------9--------------2----4----------
    E--7--10-----10--9---------5----5--4-----
    Parecemos nubes...
    
    
    
    
    Tienen que escuchar la cancion para saber todos los cambios.
  • los remates puedes variarlos improvisando checa bien
    estos signos que te seran de mucha ayuda
    
    d= dos golpes uno inmediato al otro eje. d2 tom 2 turu
                                             dt timbal tara
    r= redoble eje ro redoble en tarola
    
    k=crash
    t=timbal
    2=tom 2
    /=arillo de tarola
    x=contra cerrado
    X=contra abierto
    
    es importante que escuches primero la cancion y veas donde se
    debe matizar y el sonido que produce.
    el sonido de timbal lo puedes hacer pegando en arillo y
    parche al mismo tiempo con la baqueta acostada
    
    Intro
    |K x x x x x x x | x x x x x x x x | x x x x x x x x | x x x x x x x x |
    |/ - / - / - / - | / - / - / - / - | / - / - / - / - | / - / - / - / - |
    |o - - o - - - o | o - - o - - - o | o - - o - - - o | o - - o - - - o |
    |1 y 2 y 3 y 4 y | 1 y 2 y 3 y 4 y | 1 y 2 y 3 y 4 y | 1 y 2 y 3 y 4 y |
    
    |X x x x x x x x | x x x x x x x x | x x x x x x x x | X - - - X - - - |
    |/ - / - / - / - | / - / - / - / - | / - / - / - / - | - roo o - o – oo|
    |o - - o - - - o | o - - o -
  • +
    ¡Colabora con nosotros!
    Envíanos tu versión de esta canción
  • Tutorial
    HD
    Como Tocar Nubes - Caifanes [Guitarra Tutorial]
    9:35

Letra de Nubes
Parecemos nubes,
que se las lleva el viento
cuando hay huracanes,
cuando hay mal de amores.

Parecemos presos,
y como presos pensamos.
Escapar uno del otro,
y cometer la fuga.

Vamos a dar una vuelta al cielo,
para ver lo que es eterno.
Vamos a dar una vuelta al cielo,
para ver lo que es eterno.

Pensaras que soy un perro,
que en el cerebro tengo moquillo,
que ladro y que no muerdo,
y que soy un mal agradecido.


Tengo garras, tengo dientes
y defiendo lo que tengo,
Ay, amor ya no me entiendes,
porque muerdo y ya no suelto.

Vamos a dar una vuelta al cielo...




[Nubes chords][Nubes cifra]
© LaCuerda.net · aviso legal · privacidad · es · en · pt · contacto