Acordes de Guitarra » C »Caifanes » Para que no digas que no pienso en tí (Tab)

Para que no digas que no pienso en tí
Caifanes

Letras, Acordes y Tabs para Guitarra, Bajo y Ukulele

  • INTRO:  D  G (VARIAS VECES)
    
    E|-13-1O-13-12-1O-8-15-12-15-13-12-1O-13-1O-13-12-1O-8-8-8-8-|
    B|-----------------------------------------------------------|
    G|-----------------------------------------------------------|
    D|-----------------------------------------------------------|
    A|-----------------------------------------------------------|
    E|-----------------------------------------------------------|
    
    E|---5-5-5-3-3-3-2-2-2-O-----------15-15-15-14-14-12-1O---|
    B|-5---------------------3--------------------------------|
    G|---------------------------7-9-9------------------------|
    D|--------------------------------------------------------|
    A|--------------------------------------------------------|
    E|--------------------------------------------------------|
    
    1)
    D        G    D            G
    ANDO BUSCANDO LAS FORMAS OCULTAS 
    D             G   D               G
    
  • e-8------8-8-7----10-7---10-10-8-7-8---------------
    B---10-10------10------8------------10-------------
    G--------------------------------------------------
    D--------------------------------------------------
    A--------------------------------------------------
    E--------------------------------------------------
    
    e----8-8-7-----------------------------------------
    B-10------10-8-8-8----10-10-10-8-7-----------------
    G------------------9---------------9-9-7-7---------
    D--------------------------------------------------
    A--------------------------------------------------
    E--------------------------------------------------
    
    e-------12-15-15-15-15-14-12-----------------------
    B----14-----------------------15-------------------
    G-14-----------------------------------------------
    D--------------------------------------------------
    A--------------------------------------------------
    E--------------------------------------------------
    
  • Colaboracion de  * Adolfo Moreno Lauyola *
    
    En este solo se la rifo el Marcovich
    
    este es la introduccion de la cancion
    
    e-8----8-8-7----10-7-10-10-8-7-8-------------------
    B---10-------10------------------10----------------
    G--------------------------------------------------
    D--------------------------------------------------
    A--------------------------------------------------
    E--------------------------------------------------
    
    e-8-8-7--------------------------------------------
    B-------10-8-8-8----10-10-10-8-7----------10-------
    G-----------------9---------------9-9-7-7----------
    D--------------------------------------------------
    A--------------------------------------------------
    E--------------------------------------------------
    
    e-9-12-15-15-15-15-14-12---------------------------
    B------------------------15------------------------
    G--------------------------------------------------
    D--------------------------------------------------
    A--------------------
  • Intro: 1er  requinteo
    
    1 ---------------------------------------------------             
    2 ----15-----15--15--13---16/17----------------------
    3 -------16.------------15--------17-----------------
    4 ---------------------------------------------------	          
    5 ---------------------------------------------------	        
    6 ---------------------------------------------------	
    
    
    1 ---------------------------------------------------             
    2 ----17-17-16-14-16-------16-16-14-12---------------
    3 -------16------------17--------15----13-13-13~~----
    4 ---------------------------------------------------	          
    5 ---------------------------------------------------	        
    6 ---------------------------------------------------
    
    1 -------------------------------12-12-12-12-11-9-7~-             
    2 ----------14-14-14-12-11---11-14-------------------
    3 -------13-----------13-13-11-11~11-----------------
    4 ---------------------------------------------------	          
  • En esta rola tengo duda si es con D o con F#m ya que el
    bajo los riffs que hace son sobre la base de F#m y en
    las segundas estrofas es la tónica, quinta y séptima 
    menor  de esta misma y las partituras que tengo vienen
    en tono de D...
    
    Para que esta rola este perfectamente bien debes escucharla
    varias veces para agarrar bien los tiempos...
    
      Intro con guitarra...
      D  G    D  G        A  G         D  G
    G|------------|------------|------------||
    D|------------|-----11-----|-----11-----||
    A|5s10s12s9s10|10h12—-12s10|10h12—-9s10-||
    E|------------|------------|------------||
    
      Ando buscando…
      D            G            D            G
    G|------------|------------|------------|------------| Así hasta
    D|------------|-----------5|---4--------|-----------5| el primer
    A|------------|------------|------------|------------| coro...
    E|---2--2-----|----3--3----|---2--2-----|---3--3-----|
    
      Para que no digas ...
      A     G      D     G      A     G      B
  • +
    ¡Colabora con nosotros!
    Envíanos tu versión de esta canción
  • Tutorial
    HD
    INTRO
    como tocar PARA QUE NO DIGAS QUE NO PIENSO EN TI en guitarra - Caifanes
    3:16

Letra de Para que no digas que no pienso en tí
1)
ANDO BUSCANDO LAS FORMAS OCULTAS
DE UNA MANTARRAYA CON NEUROSIS AUSENTE
1)
ANDO BUSCANDO REPTILES CONSCIENTES
DE ACTOS PENSANTES Y NO CONVENIENTES
2)
PARA QUE NO DIGAS QUE NO PIENSO EN TI AHAAA
PARA QUE NO DIGAS QUE NO PIENSO EN TI
(2 VECES)
D G (VARIAS VECES CON EL INTRO)
1)
ANDO ENTRE SERES OBLICUOS Y AUSENTES
BUSCANDO LA FORMA DE HACERLOS PRESENTES
1)
TENGO EN MIS OJOS A MI MUJER QUE ES ETEREA
Y AUN PERDIDA ENTRE SOMBRAS QUIERO QUE SEA ETERNA
2)
PARA QUE NO DIGAS QUE NO PIENSO EN TI AHAAA
PARA QUE NO DIGAS QUE NO PIENSO EN TI
(2 VECES)
2)
PARA QUE NO DIGAS QUE NO PIENSO EN TI AHAAA
PARA QUE NO DIGAS QUE NO PIENSO EN TI
(3 VECES)




[Para que no digas que no pienso en tí chords][Para que no digas que no pienso en tí cifra]
© LaCuerda.net · aviso legal · privacidad · es · en · pt · contacto