Acordes de Guitarra » C »Caifanes » Miedo (Tab)

Miedo
Caifanes

Letras, Acordes y Tabs para Guitarra, Bajo y Ukulele

  • Em  D  Em D Em
    Miedo,
        D      Em     D       Em  D Em D Em
    es lo que debe tener el cielo.  
       D      Em
    Sera invadido
          C          D             Em  D Em D
    por amantes delirantes por un beso,
            C         D          Em   D Em D
    por profetas y dementes exiliados.
    
     
    Em  D  Em D Em
    Miedo,
        D      Em     D      Em  D Em D Em
    es lo que debe tener la vida.
       D        Em    
    Sera enfrentada
              C            D         Em    D Em D 
    por los presos y los brujos solitarios,
    
  •                                         Em  D  Em
    Donde A es rasgueo hacia abajo y R rasgueo hacia arriba.
    Para respresentar este caso utilizare el asterisco(*) 
    que significara Em y D juntos siguiendo el rasgueo de arriba.
    
    *    *
    Miedo
    *          *         *       *  *
    Es lo que debe tener el cielo,
    *         *
    Sera invadido
          C          D             *   *
    Por amantes delirantes por un beso
          C          D             *   *  * *
    Por profetas y dementes exiliados.
    
    *    *
    Miedo
    *          *         *     *
    Es lo que debe tener la vida,
    
  • 1.  Em D Em D Em    D      Em   D        Em D Em D
       Miedo        es lo que debe tener el cielo
    2. Em D      Em
       será invadido
    3.D       C         D             Em  D  Em
       por amantes delirantes por un beso      
    3.D        C          D        Em   D Em D
       por profetas y dementes exiliados 
    
    1. Miedo es lo que debe tener la vida
    2. será infectada
    3. por los presos y los brujos solitarios
    3. por las animas de niños enjuiciados
    
                   C#m                    D  
    4.  Antes que muera dejame amarte en vida
                      A                   F    
    5.  hasta que el cielo se caiga con nosotros    
     
    4.  Antes que muera dejame amarte en vida
    
  • Aqui les dejo una tab de la kncion miedo spero les
    guste xq a mi juicio suena bastante bien
    **********************************************************************
    
    Intro
    e------------------------------0000-00----------------
    B-----12v----7-8-9-------------3332-23----------------
    G------x-------------(x3)-----------------------------
    D-----14v---------------------------------------------
    A-----------------------------------------------------
    E-----------------------------------------------------
    
    e------------------------------0000-00----------------
    B-----12v----7-8-9-------------3332-23----------------
    G------x-------------(x3)-----------------------------
    D-----14v---------------------------------------------
    A-----------------------------------------------------
    E-----------------------------------------------------
    
    
    Miedo... es lo que debe tener el cielo sera invadido..
    e-----------------------------------------------------
    B-----------------------------------------------------
    G-
  • (el ligado va como "*" y el slide como "/sl")
    
        INTRO (el final con tremulo)
                                               RIFF A ( 3 veces)           
    (finaliza asi , la primera vez)
    E---7/sl-12-12-12-12~~-|----7/sl-12--12-12-----------------|------------
    B---7/sl-12-12-12-12~~-|----7/sl-12--12-12--7-8-7~~--------|-5-5~-4-3~--
    G----------------------|-----------------------------------|------------
    D----------------------|-----------------------------------|------------
    A----------------------|-----------------------------------|------------
    E----------------------|-----------------------------------|------------
    
         RIFF A(3veces)
      (final, segunda vez)        Antes que muera ...
    E-------------------------|-----7-9--10*9*7----5/sl7-5------------------
    B--5^^--3^^---------------|---7--------------------------7-5-7*5--------
    G-------------------------|---------------------------------------7~^---
    D-------------------------|--7/sl10------------------------------------
  •   saque esta rola por que vi que algunas tablaturas con unos errores y por eso subi
      esta rola lo saque lo mejor que pude asi que cualquier duda comentario o error 
      por favor escribanme
    
     INTRO:
     |---------------------------------------------------------------------------|
     |-----12------------12------------12----------------------------------------|
     |-9----9---11-12-11--9---11-12-11--9---11-12-11---14-14-14---12-12---11---9-|
     |----------11-12-11------11-12-11------11-12-11---12-12-12---12-12---11---9-|
     |---------------------------------------------------------------------------|
     |---------------------------------------------------------------------------|
    
     |---------------------------------------------------------------------------|
     |-12------------12------------12--------------------------------------------|
     |--9---11-12-11--9---11-12-11--9---11-12-11---14-14-14---12-12---11-9-------|
     |------11-12-11------11-12-11------11-12-11---12-12-12---12-12---11-9-----
  • Trate de ponerla lo mas clara posible para que puedan
    entenderle bien todos....Espero que les gustee  y si
    tienen rolas de caifanes mandenmelas mi correo es:
    almita_101@hotmail.com comentarios a mi correo
    Saludos pal rosendo
    Intro
    e-----------------------------------------------------
    B-----------------------------------------------------
    G---16v--------[16v----11-12v-11]x3----777-555-7------
    D---14v-----------------------------------------------
    A-----------------------------------------------------
    E-----------------------------------------------------
    
    e-----------------------------------------------------
    B-----------------------------------------------------
    G---[16v----11-12v-11]x3------777-555 ----------------
    D--------------------------------------9--------------
    A-----------------------------------------------------
    E-----------------------------------------------------
    
    Aqui empieza a cantar
    Miedo... es lo que debe tener el cielo sera invadido..
    e-------
  • Figura 1 (se repite durante todo el intro y verso 00:31)
          E         D           E         D
    G|---------------------|----------------------||
    D|---------------------|----------------------||
    A|-7--10--7------------|-7--10--7-------------||
    E|-----------10--7--10-|-----------10--7--0---||
    
    
    Figura 2 (Por amantes delirantes...)
              C                D
    G|----------------------------------||
    D|----------------------------------||
    A|-3-0-3-0-3-0-3-0--5-0-5-0-5-0-5-0-||
    E|----------------------------------||
    
    Se repite figura 1 y figura 2
    
    Figura 3 (Antes que muera...)
            C#                   D
    G|---------------------------------|
    D|---------------------------------|
    A|-3/4--4--0-4-4--4-4/5--5--0-5-5--|
    E|---------------------------------|
           A              F
    -------------------------------|
    -------------------------------|
    -5-0-000000000-----------------|
    ---------------1-111111111-----|
    
    La segunda vuelta tiene una variación al final en (F):
    -----------------------------
  • +
    ¡Colabora con nosotros!
    Envíanos tu versión de esta canción
  • Tutorial
    HD
    MIEDO - Caifanes: SOLO tutorial guitarra TAB #41
    1:45
  • Tutorial
    HD
    INTRO
    Como tocar MIEDO en guitarra - Caifanes [Tutorial Rockstars]
    2:53

Letra de Miedo
Miedo,
es lo que debe tener el cielo.
Sera invadido
por amantes delirantes por un beso,
por profetas y dementes exiliados.

Miedo,
es lo que debe tener la vida.
Sera enfrentada
por los presos y los brujos solitarios,
por las animos de ni~os enjuiciados.
Antes que muera,
Dejame amarte en vida,
hasta que el cielo
se caiga por nosotros.
Antes que muera,
dejame amarte en vida,
hasta que el Sol
se escape con la Luna.
Muerte,
abrazaras
a demonios hechos carne por un sue~o,
a los cuerpos hechos polvo sin justicia.

Antes que muera...




[Miedo chords][Miedo cifra]
© LaCuerda.net · aviso legal · privacidad · es · en · pt · contacto