Tablatura para Bajo de Caifanes: Viento
Conexión · Inscripción
Letras y Acordes
Pantalla Completa
Imprimir
Versión Texto
Añadir Favorito
Otras Versiones

Mostrar Diagramas
Desfile Automático
Formato del Texto


Viento(BAJ)

Caifanes

calidad:
caif0536
AUTOR: Saul Hernández
ALBUM: Caifanes (1990)
Enviado por Jesus
Aqui esta el tab correcto de bajo, esto es todo lo que tienen
que tocar, eactamente igual.  100% correcto
CAIFANES--VIENTO (Bassline)


Gtr I (E A D G) - 'Bajo'

  Q=126
 4/4
  Gtr I
  W          W          W          W
|----------|----------|----------|------|
|----------|----------|----------|------|
|----------|----------|----------|------|
|----------|----------|----------|------|


  W          W          W          W
|----------|----------|----------|------|
|----------|----------|----------|------|
|----------|----------|----------|------|
|----------|----------|----------|------|


  Q  Q  H      +E  E +S  E. Q  Q    E E +Q   H      E E +Q   H
|------------|-----------------2--|---------------|---------------|
|-0--0--0----|-(0)-0-(0)-2--4-----|---------------|---------------|
|------------|--------------------|-2-2-(2)--2----|----------0----|
|------------|--------------------|---------------|-3-3-(3)-------|


  Q  Q  H      +E  E +S  E. Q  Q    E E +Q   H      E E +Q   H
|------------|--------------------|---------------|---------------|
|------------|-----------------7--|---------------|---------------|
|-5--5--5----|-(5)-5-(5)-7--9-----|---------------|----------0----|
|------------|--------------------|-7-7-(7)--7----|-3-3-(3)-------|


  Q  Q  H      +E  E +S  E. Q  Q    E E +Q   H      E E +Q   H
|------------|--------------------|---------------|---------------|
|------------|-----------------7--|---------------|---------------|
|-5--5--5----|-(5)-5-(5)-7--9-----|---------------|----------0----|
|------------|--------------------|-7-7-(7)--7----|-3-3-(3)-------|


  Q  Q  H      +E  E +S  E. Q  Q    E E +Q   H      E E +Q   H
|------------|--------------------|---------------|---------------|
|------------|-----------------7--|---------------|---------------|
|-5--5--5----|-(5)-5-(5)-7--9-----|---------------|----------0----|
|------------|--------------------|-7-7-(7)--7----|-3-3-(3)-------|


  Q  Q  H      +E  E +S  E. Q  Q    E E +Q   H      E E +Q   H
|------------|--------------------|---------------|---------------|
|------------|-----------------7--|---------------|---------------|
|-5--5--5----|-(5)-5-(5)-7--9-----|---------------|----------0----|
|------------|--------------------|-7-7-(7)--7----|-3-3-(3)-------|


  Q  Q  H      +E  E +S  E. Q  Q    E E +Q   H      E E +Q   H
|------------|--------------------|---------------|---------------|
|------------|-----------------7--|---------------|---------------|
|-5--5--5----|-(5)-5-(5)-7--9-----|---------------|----------0----|
|------------|--------------------|-7-7-(7)--7----|-3-3-(3)-------|


  Q  Q  H      +E  E +S  E. Q  Q    E E +Q   H      E E +Q   H
|------------|--------------------|---------------|---------------|
|------------|-----------------7--|---------------|---------------|
|-5--5--5----|-(5)-5-(5)-7--9-----|---------------|----------0----|
|------------|--------------------|-7-7-(7)--7----|-3-3-(3)-------|


  Q  Q  H      +E  E +S  E. Q  Q    E E +Q   H      E E +Q   H
|------------|--------------------|---------------|---------------|
|------------|-----------------7--|---------------|---------------|
|-5--5--5----|-(5)-5-(5)-7--9-----|---------------|----------0----|
|------------|--------------------|-7-7-(7)--7----|-3-3-(3)-------|


  E E E E E E E E   E E E E E E E E   E E E E E E E E   E E E E E E E E
|-----------------|-----------------|-----------------|-----------------|
|-----------------|-----------------|-----------------|-----------------|
|-----------------|-----------------|-----------------|-----------------|
|-2-2-2-2-2-2-2-2-|-2-2-2-2-2-2-2-2-|-3-3-3-3-3-3-3-3-|-3-3-3-3-3-3-3-3-|


  E E E E E E E E   E E E E E E E E   E E E E E E E E   E E E E H
|-----------------|-----------------|-----------------|--------------|
|-----------------|-----------------|-----------------|--------------|
|-----------------|-----------------|-----------------|-0-0-0-0-0----|
|-2-2-2-2-2-2-2-2-|-2-2-2-2-2-2-2-2-|-3-3-3-3-3-3-3-3-|--------------|


  Q  Q  H      +E  E +S  E. Q  Q    E E +Q   H      E E +Q   H
|------------|--------------------|---------------|---------------|
|------------|-----------------7--|---------------|---------------|
|-5--5--5----|-(5)-5-(5)-7--9-----|---------------|----------0----|
|------------|--------------------|-7-7-(7)--7----|-3-3-(3)-------|


  Q  Q  H      +E  E +S  E. Q  Q    E E +Q   H      E E +Q   H
|------------|--------------------|---------------|---------------|
|------------|-----------------7--|---------------|---------------|
|-5--5--5----|-(5)-5-(5)-7--9-----|---------------|----------0----|
|------------|--------------------|-7-7-(7)--7----|-3-3-(3)-------|


  Q  Q  H      +E  E +S  E. Q  Q    E E +Q   H      E E +Q   H
|------------|--------------------|---------------|---------------|
|------------|-----------------7--|---------------|---------------|
|-5--5--5----|-(5)-5-(5)-7--9-----|---------------|----------0----|
|------------|--------------------|-7-7-(7)--7----|-3-3-(3)-------|


  Q  Q  H      +E  E +S  E. Q  Q    E E +Q   H      E E +Q   H
|------------|--------------------|---------------|---------------|
|------------|-----------------7--|---------------|---------------|
|-5--5--5----|-(5)-5-(5)-7--9-----|---------------|----------0----|
|------------|--------------------|-7-7-(7)--7----|-3-3-(3)-------|


  Q  Q  H      +E  E +S  E. Q  Q    E E +Q   H      E E +Q   H
|------------|--------------------|---------------|---------------|
|------------|-----------------7--|---------------|---------------|
|-5--5--5----|-(5)-5-(5)-7--9-----|---------------|----------0----|
|------------|--------------------|-7-7-(7)--7----|-3-3-(3)-------|


  Q  Q  H      +E  E +S  E. Q  Q    E E +Q   H      E E +Q   H
|------------|--------------------|---------------|---------------|
|------------|-----------------7--|---------------|---------------|
|-5--5--5----|-(5)-5-(5)-7--9-----|---------------|----------0----|
|------------|--------------------|-7-7-(7)--7----|-3-3-(3)-------|


  Q  Q  H      +E  E +S  E. Q  Q    E E +Q   H      E E +Q   H
|------------|--------------------|---------------|---------------|
|------------|-----------------7--|---------------|---------------|
|-5--5--5----|-(5)-5-(5)-7--9-----|---------------|----------0----|
|------------|--------------------|-7-7-(7)--7----|-3-3-(3)-------|


  Q  Q  H      +E  E +S  E. Q  Q    E E +Q   H      E E +Q   H
|------------|--------------------|---------------|---------------|
|------------|-----------------7--|---------------|---------------|
|-5--5--5----|-(5)-5-(5)-7--9-----|---------------|----------0----|
|------------|--------------------|-7-7-(7)--7----|-3-3-(3)-------|


  Q  Q  H      +E  E +S  E. Q  Q    E E +Q   H      E E +Q   H
|------------|--------------------|---------------|---------------|
|------------|-----------------7--|---------------|---------------|
|-5--5--5----|-(5)-5-(5)-7--9-----|---------------|----------0----|
|------------|--------------------|-7-7-(7)--7----|-3-3-(3)-------|


  Q  Q  H      +E  E +S  E. Q  Q    E E +Q   H      E E +Q   H
|------------|--------------------|---------------|---------------|
|------------|-----------------7--|---------------|---------------|
|-5--5--5----|-(5)-5-(5)-7--9-----|---------------|----------0----|
|------------|--------------------|-7-7-(7)--7----|-3-3-(3)-------|


  E E E E E E E E   E E E E E E E E   E E E E E E E E   E E E E E E E E
|-----------------|-----------------|-----------------|-----------------|
|-----------------|-----------------|-----------------|-----------------|
|-----------------|-----------------|-----------------|-----------------|
|-2-2-2-2-2-2-2-2-|-2-2-2-2-2-2-2-2-|-3-3-3-3-3-3-3-3-|-3-3-3-3-3-3-3-3-|


  E E E E E E E E   E E E E E E E E   E E E E E E E E   E E E E H
|-----------------|-----------------|-----------------|--------------|
|-----------------|-----------------|-----------------|--------------|
|-----------------|-----------------|-----------------|-0-0-0-0-0----|
|-2-2-2-2-2-2-2-2-|-2-2-2-2-2-2-2-2-|-3-3-3-3-3-3-3-3-|--------------|


  Q  Q  H      +E  E +S  E. Q  Q    E E +Q   H      E E +Q   H
|------------|--------------------|---------------|---------------|
|------------|-----------------7--|---------------|---------------|
|-5--5--5----|-(5)-5-(5)-7--9-----|---------------|----------0----|
|------------|--------------------|-7-7-(7)--7----|-3-3-(3)-------|


  Q  Q  H      +E  E +S  E. Q  Q    E E +Q   H      E E +Q   H
|------------|--------------------|---------------|---------------|
|------------|-----------------7--|---------------|---------------|
|-5--5--5----|-(5)-5-(5)-7--9-----|---------------|----------0----|
|------------|--------------------|-7-7-(7)--7----|-3-3-(3)-------|


  Q  Q  H      +E  E +S  E. Q  Q    E E +Q   H      E E +Q   H
|------------|--------------------|---------------|---------------|
|------------|-----------------7--|---------------|---------------|
|-5--5--5----|-(5)-5-(5)-7--9-----|---------------|----------0----|
|------------|--------------------|-7-7-(7)--7----|-3-3-(3)-------|


  Q  Q  H      +E  E +S  E. Q  Q    E E +Q   H      E E +Q   H
|------------|--------------------|---------------|---------------*|
|------------|-----------------7--|---------------|---------------*|
|-5--5--5----|-(5)-5-(5)-7--9-----|---------------|----------0----*|
|------------|--------------------|-7-7-(7)--7----|-3-3-(3)-------*|


Preguntas   Jesus    bosh_ultrazone@hotmail.com
Este fichero es trabajo propio de su transcriptor y representa su interpretación personal de la canción. El material contenido en esta página es
para exclusivo uso privado, por lo que se prohibe su reproducción o retransmisión, así como su uso para fines comerciales.

© LaCuerda.net · Aviso Legal · Privacidad