Acordes de Guitarra » C »Café Tacuba » Volver a comenzar (Tab)

Volver a comenzar
Café Tacuba

Letras, Acordes y Tabs para Guitarra, Bajo y Ukulele

  • G:-------------------------------
    D:----------------------7-7------
    A:-------------------------------
    E:-7-7-5-5-7-5-9-9-7-5-5-5-5-7-5-
    
    G:----------------------------------
    D:----------------------7-7-7-6-4---
    A:--------------------------------7-
    E:-7-7-5-5-7-5-9-9-7-5-5-5----------
    
    G:----------------------------------------
    D:----------------------------------------
    A:-----------------------7----------------
    E:-7-7-7-5-7-5-9-9-9-7-9---5-5-5-5-5-5-5-5 X2
    
    Intro:
    (teclado)
    
    E:-4-2-0---0-2-4-2-0--
    B:-------0------------
    
  • G:-------------------------------
    D:----------------------7-7------
    A:-------------------------------
    E:-7-7-5-5-7-5-9-9-7-5-5-5-5-7-5-
    
    G:----------------------------------
    D:----------------------7-7-7-6-4---
    A:--------------------------------7-
    E:-7-7-5-5-7-5-9-9-7-5-5-5----------
    
    G:----------------------------------------
    D:----------------------------------------
    A:-----------------------7----------------
    E:-7-7-7-5-7-5-9-9-9-7-9---5-5-5-5-5-5-5-5 X2
    
    Intro:
    (teclado)
    
    E:-4-2-0---0-2-4-2-0--
    B:-------0------------
    
  • Intro (agarrar bien el ritmo que lleva la intro y suena igual)
    
    00:07
    G|----------------------------------------|
    D|----------------------7-----7-----------|
    A|----------------------------------------|
    E|-7-75-575---99-7-55------5-----575------|
    
    00:15
    G|-----------------------------------------|
    D|----------------------7-----7764---------|
    A|----------------------------------7------|
    E|-7-75-575---99-7-55------5---------------|
    
    00:22
    G|------------------------------------------|
    D|------------------------------------------|
    A|----------------7-------------------------|
    E|-77-7575-99-979---555555-5454-------------|
    
    00:29
    G|-----------------------------------------|
    D|-----------------------------------------|
    A|----------------7------------------------|
    E|-77-7575-99-979---5555---542420----------|
    
    00:37
    G|------------------------------------------|
    D|------------------------------------------|
    A|----------------7-------------------------|
    E|-77-7575-99-979---555555-5454-------------
  • +
    ¡Colabora con nosotros!
    Envíanos tu versión de esta canción

Letra de Volver a comenzar
E:-7-7-5-5-7-5-9-9-7-5-5-5-5-7-5-
(teclado)
(guitarra)
B:-0-0-0-0-2-2-2-2-5-5-5-5-
(letra)
Si hiciera una lista de mis errores
De los menores hasta los peores
Que expusiera todas las heridas
Los fracasos desamores y las mentiras
Ofreceré el aroma del ámbar
Ofreceré mi cedro y mis lagrimas
Con la paciencia del mar esperare toda una vida
A que sane la confianza
Si volviera a comenzar
No tendría tiempo de reparar
(se repiten las notas del principio)
Si hiciera un viaje a mis adéntros
y sobreviviera a los lamentos
pediría fuerzas para decir cuanto lo siento
si volviera de un viaje a mis adentros
Si volviera a comenzar
no tendría tiempo de reparar
el agua derramada está
la sed que siento no saciará
hasta aki la rola esta bien pero despues estan mal los tonos y por eso
los voy a corregir bueno asi son:
forma abajo voy a poner el tono)
SolM Y ReM (x3)
¿Cuantas cosas más puedo guardar?
¿Cuantas cosas puedo atesorar?
Dulce tentación de dejarlo todo
¿Cuanto Espacio Mas Quiero Ocupar?
Hasta Los Recuerdos Ya no Caben en este lugar
¿Cuantas Cosas me puedo llevar? La ultima mudanza Debe Ser La Mas Ligera
Dulce Tentacion de Dejarlo Todo
Dulce Tentacion Regalarlo Todo
Aquí el bajo hace algo asi:
E:-5-4-2-4-2-O-7
Y aquí comienza con las mismas notas de toda la canción:
SiM Dom# LaM
Luego el coro: Fa# SiM
Si volviera a comenzar
No tendría tiempo de reparar
El Agua Derramada Esta
la Sed Que siento me sanara
en estos versos nomas Se tokan lso tonos
El Agua Derramada Esta
la Sed Que siento me sanara
y termina En SolM (Tienen Que escuchar el tiempo y el raspado)
bueno AKi el Tono RE en la Otra Forma
bueno aki esta
aki mi msn para Cualquier duda o sugerencia joan_10_mty@hotmail.com
y una saludo
para mis ermanos
isma alan Miguel
y saludos
al Cbtis53
y adios




[Volver a comenzar chords][Volver a comenzar cifra]
© LaCuerda.net · aviso legal · privacidad · es · en · pt · contacto
DINAMICO