Acordes de Guitarra » C »Café Tacuba » Eres (Tab)

Eres
Café Tacuba

Letras, Acordes y Tabs para Guitarra, Bajo y Ukulele

  • Am, C, E, E7
    
    
    
    Am     C   E             E7                     Am
    Eres,     lo que mas quiero en este mundo eso eres,
    C      E                   E7              Dm D9 Dm D9
           mi pensamiento mas profundo también eres,
    E7                                      Am    C E E7
    tan solo dime lo que hago  aquí me tienes.
    
    
    Am    C   E         E7                     Am        C
    Eres,     cuando despierto lo primero eso eres,
    E                         E7            Dm D9 Dm D9
    lo que a mi vida le hace falta si no vienes,
    E7                                        Am  C  E E7
    la mujer preciosa que en mi mente habita hoy.
    
    
    
  • Am, C, E, E7
    
    Aqui se queda en silencio mientras toca el arpegio el meme.
    
    Eres,lo que mas quiero en este mundo eso eres
    mi pensamiento mas profundo también eres,
    tan solo dime lo que hago  aquí me tienes.
    
    
    Am    C   E         E7                     Am        C
    Eres,     cuando despierto lo primero eso eres,
    E                         E7            Dm
    lo que a mi vida le hace falta si no vienes,
    E                        E7                Am  C  E E7
    la mujer preciosa que en mi mente habita hoy.
    
    
    Dm
    que mas puedo decirte
    E7
    
  • Am:      C:     A/Esus4:     E7:        E:
       E:5    E:3        E:5       E:x       E:0
       B:5    B:5        B:5       E:5       B:0
       G:5    G:5        G:7       G:7       G:1
       D:7    D:5        D:7       D:6       D:2
       A:7    A:3        A:7       A:7       A:2
       E:5    E:3        E:5       E:x       E:0
    
    
      Am2:   Dm:       G:        Esus4/7   Bm7/5:
       E:0    E:1        E:2       E:0         E:0
       B:1    B:3        B:2       E:0         B:3
       G:2    G:2        G:0       G:2         G:2
       D:2    D:3        D:0       D:0         D:3
       A:0    A:0        A:2       A:2         A:2
       E:0    E:x        E:3       E:0         E:x
    
    
    
    
    
  • Am        C            E       E7 x2
    -------------------------------------------------------------------------
    
      Am        C            E       E7
    e|---------0-------------------------0------|
    B|-------1---1-----1-----------0-3-----3----|
    G|-----2-------0-------------1-----1-----1--| x2
    D|---2-----------2---------2----------------|
    A|-0-----------------0-1-2------------------|
    E|------------------------------------------|
    
       Eres                  lo que mas quiero en este mundo eso
      Am        C            E       E7
    e|---------0-------------------------0------|
    B|-------1---1-----1-----------0-3-----3----|
    G|-----2-------0-------------1-----1-----1--|
    D|---2-----------2---------2----------------|
    A|-0-----------------0-1-2------------------|
    E|------------------------------------------|
    
    
  •        Am      C      E     E7
    e|---------0------------------0---------|
    B|-----1-----1------------------0-------|
    G|---2---2-----0----------1-------1-----|
    D|-2-------------2------2---0-------0---|
    A|-----------------3--2-----------------|
    E|--------------------------------------|
    
           Am      C      E     E7
    e|---------0------------------0---------|
    B|-----1-----1------------------0-------|
    G|---2---2-----0----------1-------1-----|
    D|-2-------------2------2---0-------0---|
    A|-----------------3--2-----------------|
    E|--------------------------------------|
    
    
    
    Eres,
           Am       C     
    
  •    Am7  E7   E7*  Dsus
    e|--0----0----0-----3--|
    B|--5----3----3-----3--|
    G|--5----1----1-----2--|
    D|--5----0----2-----0--|
    A|--0----2----2-----X--|
    E|--5----0----0-----X--|
    
    NOTA: Los dos acordes E7 están bien pero para distinguir uno de otro
    le puse el * El primer acorde se utiliza en el arpegio y el otro en el
    rasgueo (en el coro)
    
    INTRO: Am7 - E - Am7 - E
          Am        C           E           E7
    e|---------|---------|-------------|---------|
    B|-----1---|-----1---|---------0---|-----3---|
    G|---2---2-|---0---0-|-------1---1-|---1---1-| x2
    D|---------|---------|-------------|---------|
    A|-0-------|-3-------|-0-1-2-------|-2-------|
    E|---------|---------|-------------|---------|
    
  •   Am       C       E      E7      Dm       G       F      D5
    e|-0-|  e|-0-|  e|-0-|  e|-0-|  e|-1-|  e|-3-|  e|-1-|  e|-0-|
    B|-1-|  B|-1-|  B|-0-|  B|-3-|  B|-3-|  B|-3-|  B|-1-|  B|-3-|
    G|-2-|  G|-0-|  G|-1-|  G|-1-|  G|-2-|  G|-0-|  G|-2-|  G|-2-|
    D|-2-|  D|-2-|  D|-2-|  D|-2-|  D|-0-|  D|-0-|  D|-3-|  D|-0-|
    A|-0-|  A|-3-|  A|-2-|  A|-2-|  A|-0-|  A|-2-|  A|-3-|  A|-0-|
    E|-0-|  A|-0-|  E|-0-|  E|-0-|  E|-0-|  E|-3-|  E|-1-|  E|-0-|
    
      Dsus4
    e|-3-|
    B|-3-|
    G|-2-|
    D|-0-|
    A|-0-|
    E|-0-|
    
    Intro.
    
    Guitarra 1:Am,C,E,E7 x4
    
    
  • Intro
    ||--------|--------|--------|--------||
    ||--------|--------|--------|--------||
    ||--------|--------|--------|-7-7----||
    ||-5-55--5|-8-88--8|-7-77--7|--7-----||  [x4]
    
    Verso
    ||--------|--------|--------|-9-9----||
    ||-7------|-10-----|-9------|--9-----||
    ||--------|--------|--------|--------||
    ||--------|--------|--------|--------||  [x2]
    
    |--------|--------|--------|--------|--------|--------|
    |-12---13|14------|--------|--------|--------|-----14\|
    |--------|----14--|-12-----|-15-----|-14-----|----14--|
    |--------|--------|--------|--------|--------|--12----|
    
    ||--------|--------|--------|--------||
    ||--------|--------|--------|--------||
    ||--------|--------|--------|-7-7----||
    ||-5-55--5|-8-88--8|-7-77--7|--7-----||  [x2]
    
    |--------|--------|--------|--------|--------|----9---|
    |--------|--------|--------|--------|--------|---9-9--|
    |-5--5--6|-7------|--------|--------|--------|7-7---7\|
    |---5----|---0-7--|--5-55-5|-8-88--8|-7-77--7|-7------|
    
    Coro
    |---
  • Intro
    H |--------x-x-x-x-|
    T1|---------o-o-oo-|
    S |--------t-------|
    
                       |_______3x_______|                |_______2x_______|
    C |X---------------|----------------|X---------------|----------------|
    H |--x-x-x-x-x-x-x-|xxx-x-x-x-x-x-x-|--x-x-x-x-x-x-x-|xxx-x-x-x-x-x-x-|
    S |----o----o--o--b|----o----o--o--b|----o----o--o--b|----o----o--o--b|
    B |o--o---o--o--o--|o--o---o--o--o--|o--o---o--o--o--|o--o---o--o--o--|
    
    H |xxx-x-x-x-x-x-x-|
    T1|----------o-----|
    T2|-------------oo-|
    S |----o----o------|
    B |o--o---o--------|
    
    1er Verso
                                        |_______5x_______|
    C |X---------------|----------------|----------------|----------------|
    H |--x-x-x-x-x-x-x-|xxx-x-x-x-x-x-x-|x-x-x-x-x-x-x-x-|x-x-x-x-x-x-x-x-|
    T1|----------------|----------------|----------------|----------o--oo-|
    S |----o----o--o--b|----o----o--o--b|----o----o--o--b|----o----o------|
    B |o--o---o--o--o--|o--o---o--o--o--|o--o---o--o--o--|o--o---o--------|
    
                
  • +
    ¡Colabora con nosotros!
    Envíanos tu versión de esta canción
  • Tutorial
    HD
    Como tocar "Eres" de Cafe Tacuba - Tutorial Guitarra + TAB (HD)
    12:16
  • Tutorial
    HD
    Como tocar Eres de Cafe Tacuba en la Guitarra Acustica - Leccion para principiantes
    18:17
  • Tutorial
    HD
    Como tocar Eres de Cafe Tacuba en guitarra (HD)
    Tutorial
    3:36
  • Tutorial
    Eres - Cafe Tacuba - Como tocar en guitarra
    6:53

Letra de Eres
Eres, lo que mas quiero en este mundo eso eres,
mi pensamiento mas profundo también eres,
tan solo dime lo que hago aquí me tienes.
Eres, cuando despierto lo primero eso eres,
lo que a mi vida le hace falta si no vienes,
la mujer preciosa que en mi mente habita hoy.
que mas puedo decirte
talvez puedo mentirte
sin razon
pero lo que hoy siento
es que sin ti estoy
muerto pues eres
lo que mas quiero
en este mundo eso eres
El arpegio lleva unos bajos entre C y E en la 5° cuerda 0,1,2
**Am
Eres, el tiempo que comparto eso eres,
lo que la gente promete cuando se quiere,
mi salvación, mi esperanza y mi fe.
Soy, el que quererte quiere como nadie soy,
el que te llevaría el sustento día a día día, día,
el que por ti daría la vida ese soy.
aqui estoy a tu lado
y espero aqui sentado
hasta el final
no te has imaginado
lo que por ti he esperado
pues eres
lo que yo amo
en este mundo
cada minuto en lo que pienso eso eres...
lo que mas cuido en este mundo eso eres...
CUALKIER DUDA O COMENTARIO A jaque_kas@hotmail.com




[Eres chords][Eres cifra]
© LaCuerda.net · aviso legal · privacidad · es · en · pt · contacto