Acordes de Guitarra » C »Café Tacuba » Esa Noche (Tab)

Esa Noche
Café Tacuba

Letras, Acordes y Tabs para Guitarra, Bajo y Ukulele

  •                                 F#m F#m   C#7   C#7   F#m
    e--2--5--4--7----9--9--7-5-4-2----2--5--4--7----9--9-----
    B--2--7--3--9--6---6---6-6-6-2----2--7--3--9--6---6------
    G--------------------------------------------------------
    
             F#m               C#7
    No me hubieras dejado esa noche,
                              F#m
    porque esa misma noche encontré un amor.   [bis]
    
        Bm                  F#m         C#7         F#m
    Parecía que estaba esperando, tu momento de partir,
         Bm             F#m          C#7           F#m
    parecía haber observado, mis momentos junto a ti.
    
    
    No me hubieras dejado esa noche,
    porque esa misma noche encontré un amor.   [bis]
    
    Me abrazó el instante mismo, que tú me dijiste adiós,
    
  • e--3--6--5--8----10--10--8--6--5--3----3--6--5--8----10--10--3--
    B---------------------------------------------------------------
    G--3--7--5--9--11---11---9--7--5--3----3--7--5--9--11---11---3--
    D---------------------------------------------------------------
    A---------------------------------------------------------------
    E---------------------------------------------------------------
    
             Gm               D7
    No me hubieras dejado esa noche,
                              Gm
    porque esa misma noche encontré un amor.   [bis]
    
        Dm                  Gm         D7         Gm
    Parecía que estaba esperando, tu momento de partir,
         Dm             Gm          D7           Gm
    parecía haber observado, mis momentos junto a ti.
    
            Gm                D7
    No me hubieras dejado esa noche,
                              Gm
    
  • F#m               C#m7
    No me hubieras dejado esa noche
                                F#m
    porque esa misma noche encontre un amor
            F#m               C#m7
    No me hubieras dejado esa noche
                                F#m
    porque esa misma noche encontre un amor
    
    
    Bm                 F#m
    Parecia que estaba esperando
         C#m7        F#m
    tu momento de partir
         Bm                 F#m
    Parecia haber observado
         C#m7        F#m
    mis momentos junto a ti
           Bm              F#m
    Me abrazo el instante mismo
    
  • INTRODUCCION:
    
    (la 1ª vez solamente la guitarra)
    ----------6-6--------|
    --------------4------|
    ---------------------|
    ---------------------|
    
    VERSO:
    
    No me hubieras dejado esa noche,
    porque esa misma noche encontre un amor.
    
    ---2-6---6-----------|
    -4---------4---------|
    ---------------------|
    ---------------------|
    
    PRE-CORO:
    
    Parecia que estab esperando tu momento
    de partir parecia..............
    
    -4---4---2---6---6---2---|
    ---4---4---4---6---4---4-|      
    -------------------------|
    -------------------------|    (x2)
    
    VERSO 2:
    
    No me hubieras dejado .............
    
    ---6-2-------------||
    -4-----4-3-6-------||1º le sige el (1)
    -------------4-----||se repite y le sigue el (2)
    -------------------||
    
    (1):                        (2):
    -------6--|          -----6-4-2------|
    ---6-4----|          -3-6-------6-4--|
    -4--------|          ----------------|
    ----------|          ----------------|
    
    PRE-CORO 2:
    
    Me abrazo el instanye mismo que tu me dijiste 
  • +
    ¡Colabora con nosotros!
    Envíanos tu versión de esta canción
  • Tutorial
    como tocar Esa Noche Cover Cafe Tacuba
    1:41

Letra de Esa Noche
No me hubieras dejado esa noche,
porque esa misma noche encontré un amor. [bis]
Parecía que estaba esperando, tu momento de partir,
parecía haber observado, mis momentos junto a ti.
No me hubieras dejado esa noche,
porque esa misma noche encontré un amor. [bis]
Me abrazó el instante mismo, que tú me dijiste adiós,
y no fue una gran tristeza, fue como ir, de menor a mayor.
Tu regreso había esperado, mas te veía muy feliz,
en los brazos de tu amada, que olvidaste junto a mí.
Mas ahora que recuerdas, a mis brazos vuelve ya,
seré por siempre tu amante, tu novia, la soledad.
Y si alguna vez regresas, con aquella que te amó,
sabes no será lo mismo, pues también me conoció.
No me hubieras dejado esa noche,
porque esa misma noche encontré un amor. [10]
“Mi soledad, siempre he pertenecido a ti”




[Esa Noche chords][Esa Noche cifra]
© LaCuerda.net · aviso legal · privacidad · es · en · pt · contacto