Acordes de Guitarra » B »Los Bunkers » Papá no llores más (Tab)

Papá no llores más
Los Bunkers

Letras, Acordes y Tabs para Guitarra, Bajo y Ukulele

  • A - C# - D - D# - E - F# - G - G# - A (D - F)
    
    
    A         E
    Hace algunos años atrás
    Los globos eran de verdad
    Donde los niños nos reíamos
    A             G          G#
    De todas las cosas que veíamos
    A                E
    La alegría no dejaba de silbar
    Por los ombligos del que estuviera por aca
    Tan sólo pelotitas en la mente
    A   G       G#
    De toda la gente
    
    
    Apenas puedo recordar
    Ello llegaron al lugar
    Destruyeron altos volantines
    
  • e----------------------------\
    b---------------------------- \
    g----------------7/9-7~------  \
    d-----------------------10-7-  / Dos veces
    a-0-4-5-6-7-9-10------------- /
    e----------------------------/
     R2
    e----------------------------------------------------------------\
    b---------------------------------------------------------------- \
    g----------------------------------------------------------------  \
    d-----------5-6-7--Dos veces------7---7-8-9-10--Dos veces--------  / Dos veces
    a-5-5-8-5-8-------------------8-8---8----------------------8-7-6- /
    e----------------------------------------------------------------/
     R3
    e-12-------12----------------------15-15-14-12-----
    b----13b14----13b14--varias veces------------------
    g----------------------------------------------14/-
    d--------------------------------------------------
    a--------------------------------------------------
    e--------------------------------------------------
    
  • E|-----------------------------|-----------------------------|
    B|-----------------------------|-----------------------------|
    G|-----------------------------|-----------------------------|
    D|-----------------------------|-----------------------------|
    A|-0-4-5-6-7-9--9-h10-10-10-h9-|-0-4-5-6-7-9--9-h10-10-10-h9-|
    e|-----------------------------|-----------------------------|
    
    
    
                                                                Fig.2
    E|-----------------------------|-----------------------------|
    B|-----------------------------|-----------------------------|
    G|-----------------------------|-----------------------------|
    D|-0-0-3--3-h5-5-5-7-----------|-0-0-3--3-h5-5-5-7-----------|
    A|-----------------------------|-----------------------------|
    e|-----------------------------|-----------------------------|
    
    
    
                                                                Fig.3
    
  • +
    ¡Colabora con nosotros!
    Envíanos tu versión de esta canción

Letra de Papá no llores más
Hace algunos años atrás
Los globos eran de verdad
Donde los niños nos reíamos
De todas las cosas que veíamos
La alegría no dejaba de silbar
Por los ombligos del que estuviera por aca
Tan sólo pelotitas en la mente
De toda la gente
Apenas puedo recordar
Ello llegaron al lugar
Destruyeron altos volantines
Destrozaron nuestros balancines
Pajaritos nuevos llegaron
Pajaritos nuevos nos cantaron
Pajaritos nuevos nos llevaron
Nos vendaron los ombligos y llevaron
Vamos papá, no llores más
Ya los soldados se marcharán
Hace algunos años atrás
Ellos llegaron al lugar
Destruyeron altos volantines
Destrozaron nuestros balancines
Los perros corrieron por las calles
Babeando la rabia de Dios padre
Los niños que reían al jugar
Nunca más volvieron al lugar
Cambio Material De Los Bunkers cualkier cosa mandenme
un mail (s_abazola_89@hotmail.com)




[Papá no llores más chords][Papá no llores más cifra]
© LaCuerda.net · aviso legal · privacidad · es · en · pt · contacto