Acordes de Guitarra » B »Los Bunkers » Mala Suerte (Tab)

Mala Suerte
Los Bunkers

Letras, Acordes y Tabs para Guitarra, Bajo y Ukulele

  •     F#m
    e|---------------------|
    B|---------------------|
    G|---------------------|
    D|-----4----4-4-2------|  x2
    A|----------------4----|
    E|--2-----2------------|
    
     no paso de este invierno,Por culpa del gobierno
        MI
    e|---------------------|
    B|---------------------|
    G|---------------------|
    D|-----2----2-2-0------|  x2
    A|----------------2----|
    E|--0-----0------------|
    
     No te lo dije, miles de veces hasta
        F#m
    e|---------------------|
    
  • +
    ¡Colabora con nosotros!
    Envíanos tu versión de esta canción

Letra de Mala Suerte
no paso de este invierno,Por culpa del gobierno
No te lo dije, miles de veces hasta
hoy,Parece que será
mejor
matarse entre los
dos,sera mucho
mejor,
matarse entre los
dos
Y yo no sé por qué soy así
La mala suerte ya es parte de mi
Y es cierto que yo dije alguna vez
Las cosas nunca son como se ven
Y yo no sé por qué tu me sigues donde voy
Te pasas todo el tiempo aquí pidiendo algún favor
Supieras lo que cuesta ser feliz
No queda nada más que hacer aquí
este se toca entremedio del coro.
y termina con este




[Mala Suerte chords][Mala Suerte cifra]
© LaCuerda.net · aviso legal · privacidad · es · en · pt · contacto