Acordes de Guitarra » B »Bajo Sueños » Angel (Tab)

Angel
Bajo Sueños

Letras, Acordes y Tabs para Guitarra, Bajo y Ukulele

  • REm             LAm
    Si, se que tu erés mi sol
    SOLm           FA 
    podrías tu llegar acá
           LA7
    y alumbrar mi oscuridad
    
    Ven mi amor te necesito aquí
    si sabes tú muy bien 
    que solo vivo para amarte
    
    SOLm 
    Hasta mi vida 
           FA
    pierde su razón de ser
    LA7                    REm
        no dejes pasar el tiempo amor
    SOLm                    LA
         porque nadie te amará como yo
    
    
  • RE-LAm-LA#-FA
    
    RE LAm
    si se que tu eres mi sol
    LA#     FA         
    podrias tu llegar aca
    LA
    y alumbrar mi oscuridad
    ven mi amor te necesito aqui
    si sabes tu muy bien que solo
    vivo para amarte
    
    DO
    hasta mi vida pierde
    FA
    su razon de ser
    LA
    no dejes pasar el
    RE
    tiempo
    
  • e|-1p0----1-1-1--|-1p0-----------|-1p0----3-3-3--1-1-1--0-0-0-|  
    B|-----0--3-3-3--|-----0--1-1-1--|-----0--3-3-3--1-1-1--2-2-2-|
    G|--------2-2-2--|--------2-2-2--|--------3-3-3--2-2-2--0-0-0-|
    D|---------------|--------2-2-2--|--------5-5-5--3-3-3--2-2-2-|
    A|---------------|---------------|--------5-5-5--3-3-3--------|
    E|---------------|---------------|--------3-3-3--1-1-1--------|
    
    
    Dm             Am
    Si se que tu erés mi sol
    Gm            F 
    podrías tu llegar acá
           A7
    y alumbrar mi oscuridad
    
    Dm              Am
    Ven mi amor te necesito aquí
    Gm             F
    si sabes tú muy bien 
              A7
    
  • e --5--------1-0--   --5--------3--------------0-0---
    b ----5-----------   ----5-----------4-------5-5-5---
    g ------6-5-------2x ------6-5-----------7^----------
    D ----------------   --------------------------------
    A ----------------   --------------------------------
    E ----------------   --------------------------------
    
    e --5--------1-0--   --5--------3--------------0-0---
    b ----5-----------   ----5-----------4-------5-5-5---
    g ------6-5-------2x ------6-5-----------7^----------
    D ----------------   --------------------------------
    A ----------------   --------------------------------
    E ----------------   --------------------------------
    
    Dm  Dm             A
    si, se que tu eres mi sol
    G
    podrias tu llegar aca
    A  A7
    y alumbrar mi obscuridad
    
  • +
    ¡Colabora con nosotros!
    Envíanos tu versión de esta canción

Letra de Angel
Si, se que tu erés mi sol
podrías tu llegar acá
y alumbrar mi oscuridad
Ven mi amor te necesito aquí
si sabes tú muy bien
que solo vivo para amarte
Hasta mi vida
pierde su razón de ser
no dejes pasar el tiempo amor
porque nadie te amará como yo
Sin ti, nada puede ser igual
sin ti - i, todo se nubla en mi interior
Sin ti, nada puede ser igual
sin ti - i, ya mi luz no brillará
Sé que al fin los dos
cumpliremos la ilusión
de vernos siempre juntos
y acabar este dolor
Ven mi amor te necesito aquí
si sabes tú muy bien
que solo vivo para amarte
Hasta mi vida
pierde su razón de ser
no dejes pasar el tiempo amor
porque nadie te amará como yo
Sin ti, nada puede ser igual
sin ti - i, todo se nubla en mi interior
Sin ti, nada puede ser igual
sin ti - i, ya mi luz no brillará




[Angel chords][Angel cifra]
© LaCuerda.net · aviso legal · privacidad · es · en · pt · contacto
DINAMICO