Acordes de Guitarra » B »Bajo Sueños » Otoño (Tab)

Otoño
Bajo Sueños

Letras, Acordes y Tabs para Guitarra, Bajo y Ukulele

  • Em                       C     D
    Creo que he perdido la razón 
    Em                        Cdim   D
    ya es otro otoño sin tu amor
    Em                       Cdim          D
    no sé que hacer, para salir de este camino
    Em                     Cdim          D
    blancas colinas rosas rojas y una espina
    
    Am      G
       Lu-una
         Am
      deja de salir ya
       G    A
    deja decir que...
    
    Em     D    C
    Solo, solo,solo
        G  A
    pasioooón
    
  • Esta canción es sencilla pero muy buena, les envio el solo y los arreglos,
    
       p - Pull off
       h - Hammer on
       s - Slide
       v – Vibrato
       b – Bend
      () – Armónico Artificial
    
    
    01:36
    
    ---------------------------------------------------------------------
    -----8-10—12p10-------------10-12---10p8-----------------------8h10-8
    -7-9-------------------9-11---------------9v---------7--9--7---------
    --------------------------------------------------9------------------
    ---------------------------------------------------------------------
    ---------------------------------------------------------------------
    
    
    ---------------------------------------------------------------------
    -7-8-7---------------------------------------------------------------
    -------7—9v----------------------------------------------------------
    ---------------------------------------------------------------------
    ---------------------------------------------------------------------
    ------------------------------------
  • e---------------------------------------------------------2----------
    B------------------0-------------------------1---------3-----3-------
    G---------------0----0-------------------0---------2-----------2----
    D------------2--------- 2------0------2---------0-----------------0
    A------- -2------------------0------3--------------------------------
    E----0----------------------------------------------------------------
    
    
    e---------------------------------------------------------------------2-
    B--------------------0---------------------------------1-----------3-----
    G----------------0-------0-------------------------0-----------2--------
    D------------2---------------2---------0------2------------0------------
    A------- -2-------------------------0-------3----------------------------
    E----0--------------------------------------------------------------------
    
    
    e---------------------------------------------------------2----------
    B------------------0-------------------------1---------3-----3-------
    G---------------0----0-------------------0---------2-----------2----
    D------------2--------- 2------0------2---------0-----------------0
    
  •      Emadd9                                      Cadd9               D
    E||------------------------|--------------------|------------------------|
    B||-------------------0----|--------------------|------------3-----------|
    G||-------------0----------|----0---------------|---------0-----0--------|
    D||----------4-----4-------|---------4----------|------2-----------------|
    A||-------2----------------|--------------0--2--|--3---------------3/5---|
    E||--0---------------------|--------------------|------------------------|
                                 Emadd9
    ------------0-----------|-----------------------|--------------------|
    ---------5-----5--------|------------------0----|--------------------|
    ------0-----------0-----|------------0----------|----0---------------|
    ---4-----------------4--|---------4-----4-------|---------4----------|
    ------------------------|------2----------------|--------------0--2--|
    ------------------------|--0--------------------|--------------------|
      Cadd9             B7
    -----------------------|-----------2--------|
    ------------3----------|--------0-----0-----|
    ---------0-----0-------|-----2-----------2--|
    ------2----------------|--1-----------------|
    --3---------------2----|--------------------|
    
  • +
    ¡Colabora con nosotros!
    Envíanos tu versión de esta canción

Letra de Otoño
Creo que he perdido la razón
ya es otro otoño sin tu amor
no sé que hacer, para salir de este camino
blancas colinas rosas rojas y una espina
Lu-una
deja de salir ya
deja decir que...
pasioooón
Creo que estoy aferrado a ti
ya no hay manera de saliiiiiiir
no sé para donde mirar
Lu-una
deja de salir ya
deja decir que...
pasioooón.




[Otoño chords][Otoño cifra]
© LaCuerda.net · aviso legal · privacidad · es · en · pt · contacto
DINAMICO