Acordes de Guitarra » B »Bajo Sueños » Dama Imaginaria (Tab)

Dama Imaginaria
Bajo Sueños

Letras, Acordes y Tabs para Guitarra, Bajo y Ukulele

  • DOm SOL# A# DOm SOL#-LA#(2 veces)
    
      DOm                      SOL#
    Cada dia que pienso mas en ti
       LA#                  DOm  SOL#-LA#
    Pregunte en donde estas tu
     DOm                 SOL#
    Si solo yo te encontrare
     LA#                    DOm SOL#-LA#
    Y al final juntos los dos
    DOm                              SOL#
    Porque siento que el sol no hara calor
             LA#                    RE# LA#-SOL#m-SOLm
    Si aun estas dentro de mi interioooooooooooooor
    
     FAm                         DOm
    Pienso que tu formas parte de mi
     FAm                         RE#
    Y que algun dia yo podre compartir
     SOLm                         DOm
    
  • | ---???---                                     |
    | NADA DE AMOR [2000]                           |
    +-----------------------------------------------+
    =========LAS PISADAS DEL ROCK EN ESPAÑOL=========
    
      SIm                      SOL 
    Cada dia que pienso mas en ti 
       LA                  SIm  SOL-LA
    Pregunte en donde estas tu
     SIm                 SOL
    Si solo yo te encontrare
     LA                    SIm SOL-LA
    Y al final juntos los dos
    SIm                              SOL 
    Por que siento que el sol no hara calor
             LA                    RE LA
    Si aun estas dentro de mi interior
    
     SOL                         SIm
    Pienso que tu formas parte de mi
    
  • OTRA BUENA CANCION DE ESTA GRAN BANDA ECUATORIANA
    
    INTRO
    
    G|--------------
    D|--------------
    A|-3------------
    E|--------4--6--
    
    ----------------------------------------------------------
    ----------------------------------------------------------
    -3-33-3-33-3-33-3-3---------------------------------------
    --------------------4-44-4-44-4-44-4-4-6-66-6-66-6-66-6-6-
    
    
    ------------------|
    ------------------|
    -3-33-3-33--------|
    ------------4--6--|
    
    VERSO
    
    Cada día que pienso más en ti…
    
    ||----------------------------------------------------------
    ||----------------------------------------------------------
    ||-3-33-3-33-3-33-3-3---------------------------------------
    ||--------------------4-44-4-44-4-44-4-4-6-66-6-66-6-66-6-6-
    
                      2x
    ------------------||
    ------------------||
    -3-33-3-33--------||
    ------------4--6--||
    
    
    Porque siento que el sol…
    
    -----------------------------------------------------------
    -----------------------------------------------------------
    --3-33-3-33-
  • +
    ¡Colabora con nosotros!
    Envíanos tu versión de esta canción

Letra de Dama Imaginaria
| NADA DE AMOR [2000] |
=========LAS PISADAS DEL ROCK EN ESPAÑOL=========
Cada dia que pienso mas en ti
Pregunte en donde estas tu
Si solo yo te encontrare
Y al final juntos los dos
Por que siento que el sol no hara calor
Si aun estas dentro de mi interior
Pienso que tu formas parte de mi
Y que algun dia yo podre compartir
La ilusion de darte todo este amor
Y al final juntos los dos (ohoho)
Sin tu amor, morire
Sin tu amor
Sin tu amor, morire
Sin tu amor
Dama imaginaria morire......(ehehe)

Solamente te veo en mi ilusion
Y el llorar pensando en tu amor
Yo se bien que tu estas cerca de mi
Nuestro amor,jamas morira (ahahaha)....."REGRESA AL 2ND VERSO"
BUENO ESPERO QUE DISFRUTEN ESTE TAB
YA QUE ESTA GRUPO ECUATORIANO ESTA SONANDO
MUCHO




[Dama Imaginaria chords][Dama Imaginaria cifra]
© LaCuerda.net · aviso legal · privacidad · es · en · pt · contacto
DINAMICO