Acordes de Guitarra » B »Babylon Chat » Ponte tacones (Tab)

Ponte tacones
Babylon Chat

Letras, Acordes y Tabs para Guitarra, Bajo y Ukulele

  •   A5           D    A5          C  
    e|-----------------------------------|
    b|-------------7----------------5----|
    g|-------------7----------------5----|
    D|-7-7-7-7-7---7----7-7-7-7-7---5----|
    A|-7-7-7-7-7---5----7-7-7-7-7---3----|
    E|-5-5-5-5-5--------5-5-5-5-5--------|
    
    
    Despues de hacer la intro unas cuantas veces viene esto:
    
      A5              D5               C5              D5    
    e|-----------------------------------------------------------------|
    b|-----------------------------------------------------------------|
    g|-----------------------------------------------------------------|
    D|-----------------7-7-7-7-7-7-7-7-5-5-5-5-5-5-5-5-7-7-7-7-7-7-7-7-|
    A|-7-7-7-7-7-7-7-7-5-5-5-5-5-5-5-5-3-3-3-3-3-3-3-3-5-5-5-5-5-5-5-5-|
    E|-5-5-5-5-5-5-5-5-------------------------------------------------|
      PM...............................................................
    
    
  • +
    ¡Colabora con nosotros!
    Envíanos tu versión de esta canción

Letra de Ponte tacones
Despues de hacer la intro unas cuantas veces viene esto:
PM...............................................................
Esta progresión viene acompañada de un solo que se puede
improvisar con una pentatonica menor de A.
Luego, la voz entra con esto:
PM...................... PM..............................
Y este es el estribillo:
El resto de la canción sigue con los mismos riffs, pero
con algun cambio de estrucura entre ellos, excepto la
parte del interludio que se toca con los acordes A y
D dejandolos sonar libremente al principio, y tocándolos
despues así unas cuantas veces:
PM............ PM..............
Espero que los guitarristas que escuchen la música
de este grupo se decidan a sacar más canciones, ya que
además de ser buenas, muchas de ellas son muy fáciles
de sacar(como por ejemplo esta misma)




[Ponte tacones chords][Ponte tacones cifra]
© LaCuerda.net · aviso legal · privacidad · es · en · pt · contacto
DINAMICO