Acordes de Guitarra » B »Babylon Chat » Supergirl (Tab)

Supergirl
Babylon Chat

Letras, Acordes y Tabs para Guitarra, Bajo y Ukulele

  •  C               G               D             A
    |-------------------------------------------------------------
    |-------------------------------------------------------------
    |-------------------------------------------------------------
    |------2-2-3-3-5----------------0--0-4-4-5-5-7----------------
    |-3--3----------------2-2-3-3-5----------------0--0-4-4-5-5-7-
    |----------------3--3-----------------------------------------
      
      C              G                 D           A
     -------------------------------------------------------------|
     -------------------------------------------------------------|
     -------------------------------------------------------------|
     ------2-2-3-3-5----------------0--0-4-4-5-5-7----------------|
     -3--3----------------2-2-3-3-55---------------0--0-4-4-5-4-0-|
     ----------------3--3-----------------------------------------|
    
       Riff2:
     
      C         G            D             A
    |----------------------------------------------------|
    
  • +
    ¡Colabora con nosotros!
    Envíanos tu versión de esta canción

Letra de Supergirl
Riff2:

Riff3:
Riff4:
Riff5:

Riff6:
Riff7:
Estructura:
Intro; Riff1
Verso1; Riff2 + Riff3 + Riff4 + Riff4
Interludio; Riff1
Verso2; Riff2 + Riff3 + Riff3 + Riff3
Pre-estribillo; Riff5
Estribillo; Riff6 + Riff6
Verso2; Riff7 + Riff4 + Riff4
Pre-estribillo; Riff5
Estribillo; Riff6(se le añaden unos acordes para conectar con el solo; D A D A D A)
Solo; con Riff5 varias veces
Estribillo; Riff6 añadiendo una secuencia más de C G C G C G




[Supergirl chords][Supergirl cifra]
© LaCuerda.net · aviso legal · privacidad · es · en · pt · contacto
DINAMICO