Acordes de Guitarra » B »Babylon Chat » Camaleón (Tab)

Camaleón
Babylon Chat

Letras, Acordes y Tabs para Guitarra, Bajo y Ukulele

  •   E                          G5  E   G5
    |------------------------------------------|
    |-9--9----9--9----9--9---------------------|
    |-9--9----9--9----9--9-------0-------0-----|
    |-9--9----9--9----9--9-------0-------0-----|
    |-7--7----7--7----7--7-------x-------x-----|
    |-0--0----0--0----0--0----0--3---0---3-----|
    
    Riff2
    
       A5
    |--5---5---5--5--5---5-5--5--5-5--5-5--------|
    |--5---5---5--5--8-7-5-5--5--5-5--5-5--------|
    |--------------------------------------------|
    |--------------------------------------------|
    |--------------------------------------------|
    |--------------------------------------------|
    
    Riff3
     
    
  • +
    ¡Colabora con nosotros!
    Envíanos tu versión de esta canción

Letra de Camaleón
Riff2
Riff3

Preestribillo1

estribillo
Preestribillo2
Y aquí la estructura:
-Verso1=Riff2 + Riff1(x2) + Riff 3 + Riff1(x2)
-Preestribillo1
-Estribillo
-Verso2=Riff3 + Riff1(x2) + Riff 3
-Preestribillo2
-Estribillo
-Solo(lo mejor es improvisar)
-Preestribillo2
-Estribillo x2
-y acordes de E sueltos para acabar
-Solo(lo mejor es improvisar)
-Preestribillo2
-Estribillo x2
-y acordes de E sueltos para acabar

Video de Camaleón
[]




[Camaleón chords][Camaleón cifra]
© LaCuerda.net · aviso legal · privacidad · es · en · pt · contacto
DINAMICO