Acordes de Guitarra » B »Babylon Chat » Ritual (Tab)

Ritual
Babylon Chat

Letras, Acordes y Tabs para Guitarra, Bajo y Ukulele

  •  A           C      
    --------------------------
    -------------5------------
    -2-2---2-2---5------------
    -2-2---2-2---5------------
    -0-0---0-0---3------------
    ------------------0-3-0-3-
    
    -Preestribillo:
    
    F                 D
    
    -----------0--------------0--------
    ------1------1----------3----3---3-
    ---2----2------2------2--------2---
    -3----------------0----------------
    -----------------------------------
    -----------------------------------
    
    -Estribillo:
    
  • +
    ¡Colabora con nosotros!
    Envíanos tu versión de esta canción

Letra de Ritual
-Preestribillo:
-Estribillo:

Para el solo hay que usar principalmente la escala pentatónica
en A menor.

Video de Ritual
[]




[Ritual chords][Ritual cifra]
© LaCuerda.net · aviso legal · privacidad · es · en · pt · contacto
DINAMICO