Acordes de Guitarra » B »los Babasónicos » Valle de Valium (Tab)

Valle de Valium
los Babasónicos

Letras, Acordes y Tabs para Guitarra, Bajo y Ukulele

  • LAm     REm     LAm      FA 
    belleza palida, no sos igual a las demas
    
    LAm      FA           SOL   LAm
    perla rosada, fragil caparazon
    
    LAm         REm  LAm    FA           LAm      FA        SOL   LAm
    dejame acariciar tu femenina vanidad y abandonemos la vacilacion
    
    FA SOL   LAm
    sube al valle de valium
    
    FA              SOL   LAm
    entre momentos pienso en ti
    
    FA       SOL   LAm                FA        SOL LAm
    siento estar tan acomodado y del vado no puedo salir
    
    LAm         REm  
    cleopatra echada
    
  • A#m     D#m
    Belleza palida
    A#m     F#
    no sos igual a las demas
    A#m     F#
    perla rosada
    G#       A#m
    fragil caparazon
    A#m     D#m
    dejame acariciar
    A#m     F#
    tu femenina vanidad
    A#m     F#      G#         A#m
    y abandonemos la vacilacion
    
    CORO
    
    F# G#  A#m
    Sube al valle de valium
    F#       G#        A#m
    
  •    LAm                REm             LAm             Fmaj7
    E-------0--------|--------1-------|-------0------|----------0-----
    B---------1------|-----------3----|---------1----|------------1---
    G----2-------2---|-----2--------2-|----2-------2-|----2---2-------
    D--2-------------|--0-------------|--2-----------|--3---3---------
    A--0-------------|----------------|--0-----------|--3-------------
    E----------------|----------------|--------------|----------------
    
    FIG2
       LAm                 Fmaj7           SOL       LAm
    E-------0--------|-------0--------|--------|-----0----------------
    B---------1------|----------1-----|-------3|-----1-------------------
    G----2-------2---|----2--------2--|----4---|-----2--------------------
    D--2-------------|--3-------------|--5-----|-----2--------------------
    A--0-------------|--3-------------|--5-----|-----0---------------------
    E----------------|----------------|--------|--------------------------
    
    FIG3
         Fmaj7           SOL       LAm
    E--0--0---------|--3--3-----|--0--0------0--------
    
  • +
    ¡Colabora con nosotros!
    Envíanos tu versión de esta canción

Letra de Valle de Valium
belleza palida, no sos igual a las demas
perla rosada, fragil caparazon
dejame acariciar tu femenina vanidad y abandonemos la vacilacion
sube al valle de valium
entre momentos pienso en ti
siento estar tan acomodado y del vado no puedo salir
cleopatra echada
al cesar puedo traicionar
por un minuto de tu atencion
ingenua esfinge
tu perfumada suavidad
me hace vivir extrañandote
sube al valle de valium
entre momentos pienso en ti
siento estar tan acomodado y del vado no puedo salir




[Valle de Valium chords][Valle de Valium cifra]
© LaCuerda.net · aviso legal · privacidad · es · en · pt · contacto