Acordes de Guitarra » A »Aterciopelados » Maligno (Tab)

Maligno
Aterciopelados

Letras, Notas, Punteos, Tablaturas y Acordes de Guitarra (Tabs & Chords)

  • Letra y Acordes
    A#m               F#
    dentro muy dentro como un implante
      A#m           F#
    incrustado en mi interior
      A#m          F#
    en mi cerebro loop implacable
      A#m          F#
    mi voluntad destruyo
      A#m            F#
    poquito a poco tu te instalaste
      A#m           F#
    eres huesped o invasor
    
     D#m                G#
    Tiñes mis dias de fatal melancolia
    
     D#m                   G#
    eres el hacha que astilló toda mi vida
    
     D#m           G#
    
  • Letra y Acordes
     A#m               G#
    dentro muy dentro como un implante
      A#m           G#
    incrustado en mi interior
      A#m          G#
    en mi cerebro loop implacable
      A#m          G#
    mi voluntad destruyo
      A#m            G#
    poquito a poco tu te instalaste
      A#m           G#
    eres huesped o invasor
    
     D#m                G#
    Tiñes mis dias de fatal melancolia
    
    Punteo:
    53-54-53-54-s-56-58-56-54-54-53-54-s-56
    s(slide)
    
    
  • Letra y Acordes
    Am               F
    Dentro muy dentro como un implante
      Am           F
    incrustado en mi interior
      Am           F
    en mi cerebro loop implacable
      Am           F
    mi voluntad destruyo
      Am             F
    poquito a poco tu te instalaste
      Am            F
    eres huesped o invasor
    
    
     Dm                 G               Dm G
    Tiñes mis dias de fatal melancolia
     Dm                    G               Dm G
    eres el hacha que astilló toda mi vida
     Dm            G     Dm G
    premeditada y divina
    
  • Tablatura
    e|------------------------------------------------------------------------|
    B|-----------------------------6----------15-13-11-13-15-13h15p13-11-13---|
    G|-----------------------------6-----6------------------------------------|
    D|-----10-11~--10--------------------8------------------------------------|
    A|--13-----------13~---9~-------------------------------------------------|
    E|------------------------------------------------------------------------|
    
    En los versos su vuelve a tocar el intro del acordeon
    
    ...poquito a poco
    e|-----------------------------2---1~-----------------6~------------------|
    B|--------------2-----------2------2~-----------------7~------------------|
    G|----------------3------3---------3~-----------------6~------------------|
    D|------------------3-4---------------------------------------------------|
    A|------------------------------------------------------------------------|
    E|------------------------------------------------------------------------|
    
    Despues en el coro siguen estas figuras:
    
    ...de fatal melancolía
    
  • +
    ¡Colabora con nosotros!
    Envíanos tu versión de esta canción

Letra de Maligno
dentro muy dentro como un implante
incrustado en mi interior
en mi cerebro loop implacable
mi voluntad destruyo
poquito a poco tu te instalaste
eres huesped o invasor
Tiñes mis dias de fatal melancolia
eres el hacha que astilló toda mi vida
premeditada y divina
cruel y despiadado me has humillado
y sin embargo aqui estoy
aunque me ultrajes aunque me uses
siempre a tu disposicion
se acabo he llegado al limite
de mi ciega devocion
Tiñes mis dias de fatal melancolia
eres el hacha que astilló toda mi vida
premeditada y divina
quiero desintoxicarme
cortar esa dependencia
antes que sea tarde
Tiñes mis dias de fatal melancolia
eres el hacha que astilló toda mi vida
premeditada y divina
Tiñes mis dias de fatal melancolia
eres el hacha que astilló toda mi vida
premeditada y divina



© LaCuerda.net · Aviso Legal · Privacidad