Acordes de Guitarra » A »Annette Moreno » Angel Guardián (Tab)

Angel Guardián
Annette Moreno

Letras, Acordes y Tabs para Guitarra, Bajo y Ukulele

  • G
    Cuando me levanto
              Bm
    No se que va a ser de ese dia
                 C
    Mi angel guardian ami me cuida
               D
    Mi fe esta siempre en la vida...
    
    G
    Cuando era pequeña
           Bm
    Hasta ahora en mis dias
              C
    Solo Dios sabe que la vida
                D
    El me la ha dado hasta ahorita
    
    PRECORO
    Em                                B7
    
  • INTRO:2 VECES
    
    G-----------------------------------------------
    D-----------------------------------------------
    A-------------2---2-2----3----3-3----5---5-5----
    E----3----3-3-----------------------------------
    
    I ESTROFA
    
    G--------------------------------------------------
    D--------------------------------------------------
    A------------------------------2---------------2-2-
    E-3----------3--3----------------------------------
      Cuando me levanto, no se que va a ser de ese dia
    
    G--------------------------------------------------
    D--------------------------------------------------
    A---------------------------3-3----------------5---
    E--------------3----------------------------------
     mi angel guardian a mi me cuida, mi fe esta siempre
    
    G-------------------------------------------------------
    D-------------------------------------------------------
    A-----5--5-------------------------------2----------2--2
    E------------3-----------3--3---------------------------
     en la vida, cuando era pequ
  • +
    ¡Colabora con nosotros!
    Envíanos tu versión de esta canción

Letra de Angel Guardián
Cuando me levanto
No se que va a ser de ese dia
Mi angel guardian ami me cuida
Mi fe esta siempre en la vida...
Cuando era pequeña
Hasta ahora en mis dias
El me la ha dado hasta ahorita
PRECORO
Yo recuerdo los momentos / de tener que morir
Mas otra vez vi tu mano / que me dejo ami vivir
Y no se/ como ese dia yo me salve
Me esta cuidando/ me esta mirando/ me esta ayudando y no se
Como ese dia yo me salve/ solo una cosa puedo creer
Que tu me amas/ que tu me quieres/ que tu me cuidas
A pesar de los momentos/ que me aleje de tu mirada
No me dejaste abandonada
Vivo agradecida
Por la vida que me brindas
Por el aire que respiro
Y por todos mis amigos!
Pagarte ati no puedo
No hay precio para esto
Y con lo poco que yo puedo
Ati te agradezco por que
*PRECORO 1V.
* CORO 1V.
*INTER_MUSIC: // G-Bm-C-Am-D//
*PRECORO: Yo recuerdo los momentos / de tener que morir ha ha ha
* CORO hasta: "me cuidas" - se repite una vez mas completo
*FINAL: arpegeado
Cuando me levanto/no se que va a ser de ese dia
Mi angel guardian ami me cuida...
gracias DIOS por cuidarme a pesar de mis caidas...




[Angel Guardián chords][Angel Guardián cifra]
© LaCuerda.net · aviso legal · privacidad · es · en · pt · contacto
DINAMICO